  0
SECTION
  2
HEADER
  9
$ACADVER
  1
AC1021
  9
$ACADMAINTVER
 70
    25
  9
$DWGCODEPAGE
  3
ANSI_1252
  9
$LASTSAVEDBY
  1
taoufiq
  9
$INSBASE
 10
0.0
 20
0.0
 30
0.0
  9
$EXTMIN
 10
-9.1635
 20
-9.67157
 30
0.0
  9
$EXTMAX
 10
14.55254
 20
14.14391
 30
0.0
  9
$LIMMIN
 10
0.0
 20
0.0
  9
$LIMMAX
 10
12.0
 20
9.0
  9
$ORTHOMODE
 70
     0
  9
$REGENMODE
 70
     1
  9
$FILLMODE
 70
     1
  9
$QTEXTMODE
 70
     0
  9
$MIRRTEXT
 70
     1
  9
$LTSCALE
 40
1.0
  9
$ATTMODE
 70
     1
  9
$TEXTSIZE
 40
0.2
  9
$TRACEWID
 40
0.05
  9
$TEXTSTYLE
  7
Standard
  9
$CLAYER
  8
0
  9
$CELTYPE
  6
ByLayer
  9
$CECOLOR
 62
   256
  9
$CELTSCALE
 40
1.0
  9
$DISPSILH
 70
     0
  9
$DIMSCALE
 40
1.0
  9
$DIMASZ
 40
0.18
  9
$DIMEXO
 40
0.0625
  9
$DIMDLI
 40
0.38
  9
$DIMRND
 40
0.0
  9
$DIMDLE
 40
0.0
  9
$DIMEXE
 40
0.18
  9
$DIMTP
 40
0.0
  9
$DIMTM
 40
0.0
  9
$DIMTXT
 40
0.18
  9
$DIMCEN
 40
0.09
  9
$DIMTSZ
 40
0.0
  9
$DIMTOL
 70
     0
  9
$DIMLIM
 70
     0
  9
$DIMTIH
 70
     1
  9
$DIMTOH
 70
     1
  9
$DIMSE1
 70
     0
  9
$DIMSE2
 70
     0
  9
$DIMTAD
 70
     0
  9
$DIMZIN
 70
     0
  9
$DIMBLK
  1

  9
$DIMASO
 70
     1
  9
$DIMSHO
 70
     1
  9
$DIMPOST
  1

  9
$DIMAPOST
  1

  9
$DIMALT
 70
     0
  9
$DIMALTD
 70
     2
  9
$DIMALTF
 40
25.4
  9
$DIMLFAC
 40
1.0
  9
$DIMTOFL
 70
     0
  9
$DIMTVP
 40
0.0
  9
$DIMTIX
 70
     0
  9
$DIMSOXD
 70
     0
  9
$DIMSAH
 70
     0
  9
$DIMBLK1
  1

  9
$DIMBLK2
  1

  9
$DIMSTYLE
  2
Standard
  9
$DIMCLRD
 70
     0
  9
$DIMCLRE
 70
     0
  9
$DIMCLRT
 70
     0
  9
$DIMTFAC
 40
1.0
  9
$DIMGAP
 40
0.09
  9
$DIMJUST
 70
     0
  9
$DIMSD1
 70
     0
  9
$DIMSD2
 70
     0
  9
$DIMTOLJ
 70
     1
  9
$DIMTZIN
 70
     0
  9
$DIMALTZ
 70
     0
  9
$DIMALTTZ
 70
     0
  9
$DIMUPT
 70
     0
  9
$DIMDEC
 70
     4
  9
$DIMTDEC
 70
     4
  9
$DIMALTU
 70
     2
  9
$DIMALTTD
 70
     2
  9
$DIMTXSTY
  7
Standard
  9
$DIMAUNIT
 70
     0
  9
$DIMADEC
 70
     0
  9
$DIMALTRND
 40
0.0
  9
$DIMAZIN
 70
     0
  9
$DIMDSEP
 70
    46
  9
$DIMATFIT
 70
     3
  9
$DIMFRAC
 70
     0
  9
$DIMLDRBLK
  1

  9
$DIMLUNIT
 70
     2
  9
$DIMLWD
 70
    -2
  9
$DIMLWE
 70
    -2
  9
$DIMTMOVE
 70
     0
  9
$DIMFXL
 40
1.0
  9
$DIMFXLON
 70
     0
  9
$DIMJOGANG
 40
0.7853981633974483
  9
$DIMTFILL
 70
     0
  9
$DIMTFILLCLR
 70
     0
  9
$DIMARCSYM
 70
     0
  9
$DIMLTYPE
  6

  9
$DIMLTEX1
  6

  9
$DIMLTEX2
  6

  9
$LUNITS
 70
     2
  9
$LUPREC
 70
     4
  9
$SKETCHINC
 40
0.1
  9
$FILLETRAD
 40
0.5
  9
$AUNITS
 70
     0
  9
$AUPREC
 70
     0
  9
$MENU
  1
.
  9
$ELEVATION
 40
0.0
  9
$PELEVATION
 40
0.0
  9
$THICKNESS
 40
0.0
  9
$LIMCHECK
 70
     0
  9
$CHAMFERA
 40
0.0
  9
$CHAMFERB
 40
0.0
  9
$CHAMFERC
 40
0.0
  9
$CHAMFERD
 40
0.0
  9
$SKPOLY
 70
     0
  9
$TDCREATE
 40
2459292.76171978
  9
$TDUCREATE
 40
2459292.720053114
  9
$TDUPDATE
 40
2459292.76171978
  9
$TDUUPDATE
 40
2459292.720053114
  9
$TDINDWG
 40
0.0000000116
  9
$TDUSRTIMER
 40
0.0000000116
  9
$USRTIMER
 70
     1
  9
$ANGBASE
 50
0.0
  9
$ANGDIR
 70
     0
  9
$PDMODE
 70
     0
  9
$PDSIZE
 40
0.0
  9
$PLINEWID
 40
0.0
  9
$SPLFRAME
 70
     0
  9
$SPLINETYPE
 70
     6
  9
$SPLINESEGS
 70
     8
  9
$HANDSEED
  5
DA
  9
$SURFTAB1
 70
     6
  9
$SURFTAB2
 70
     6
  9
$SURFTYPE
 70
     6
  9
$SURFU
 70
     6
  9
$SURFV
 70
     6
  9
$UCSBASE
  2

  9
$UCSNAME
  2

  9
$UCSORG
 10
0.0
 20
0.0
 30
0.0
  9
$UCSXDIR
 10
1.0
 20
0.0
 30
0.0
  9
$UCSYDIR
 10
0.0
 20
1.0
 30
0.0
  9
$UCSORTHOREF
  2

  9
$UCSORTHOVIEW
 70
     0
  9
$UCSORGTOP
 10
0.0
 20
0.0
 30
0.0
  9
$UCSORGBOTTOM
 10
0.0
 20
0.0
 30
0.0
  9
$UCSORGLEFT
 10
0.0
 20
0.0
 30
0.0
  9
$UCSORGRIGHT
 10
0.0
 20
0.0
 30
0.0
  9
$UCSORGFRONT
 10
0.0
 20
0.0
 30
0.0
  9
$UCSORGBACK
 10
0.0
 20
0.0
 30
0.0
  9
$PUCSBASE
  2

  9
$PUCSNAME
  2

  9
$PUCSORG
 10
0.0
 20
0.0
 30
0.0
  9
$PUCSXDIR
 10
1.0
 20
0.0
 30
0.0
  9
$PUCSYDIR
 10
0.0
 20
1.0
 30
0.0
  9
$PUCSORTHOREF
  2

  9
$PUCSORTHOVIEW
 70
     0
  9
$PUCSORGTOP
 10
0.0
 20
0.0
 30
0.0
  9
$PUCSORGBOTTOM
 10
0.0
 20
0.0
 30
0.0
  9
$PUCSORGLEFT
 10
0.0
 20
0.0
 30
0.0
  9
$PUCSORGRIGHT
 10
0.0
 20
0.0
 30
0.0
  9
$PUCSORGFRONT
 10
0.0
 20
0.0
 30
0.0
  9
$PUCSORGBACK
 10
0.0
 20
0.0
 30
0.0
  9
$USERI1
 70
     0
  9
$USERI2
 70
     0
  9
$USERI3
 70
     0
  9
$USERI4
 70
     0
  9
$USERI5
 70
     0
  9
$USERR1
 40
0.0
  9
$USERR2
 40
0.0
  9
$USERR3
 40
0.0
  9
$USERR4
 40
0.0
  9
$USERR5
 40
0.0
  9
$WORLDVIEW
 70
     1
  9
$SHADEDGE
 70
     3
  9
$SHADEDIF
 70
    70
  9
$TILEMODE
 70
     1
  9
$MAXACTVP
 70
    64
  9
$PINSBASE
 10
0.0
 20
0.0
 30
0.0
  9
$PLIMCHECK
 70
     0
  9
$PEXTMIN
 10
1.000000000000000E+20
 20
1.000000000000000E+20
 30
1.000000000000000E+20
  9
$PEXTMAX
 10
-1.000000000000000E+20
 20
-1.000000000000000E+20
 30
-1.000000000000000E+20
  9
$PLIMMIN
 10
0.0
 20
0.0
  9
$PLIMMAX
 10
12.0
 20
9.0
  9
$UNITMODE
 70
     0
  9
$VISRETAIN
 70
     1
  9
$PLINEGEN
 70
     0
  9
$PSLTSCALE
 70
     1
  9
$TREEDEPTH
 70
  3020
  9
$CMLSTYLE
  2
Standard
  9
$CMLJUST
 70
     0
  9
$CMLSCALE
 40
1.0
  9
$PROXYGRAPHICS
 70
     1
  9
$MEASUREMENT
 70
     0
  9
$CELWEIGHT
370
    -1
  9
$ENDCAPS
280
     0
  9
$JOINSTYLE
280
     0
  9
$LWDISPLAY
290
     0
  9
$INSUNITS
 70
     5
  9
$HYPERLINKBASE
  1

  9
$STYLESHEET
  1

  9
$XEDIT
290
     1
  9
$CEPSNTYPE
380
     0
  9
$PSTYLEMODE
290
     1
  9
$FINGERPRINTGUID
  2
{ee173cc6-1e1d-4b45-9d85-8425ded91c6d}
  9
$VERSIONGUID
  2
{FAEB1C32-E019-11D5-929B-00C0DF256EC4}
  9
$EXTNAMES
290
     1
  9
$PSVPSCALE
 40
0.0
  9
$OLESTARTUP
290
     0
  9
$SORTENTS
280
   127
  9
$INDEXCTL
280
     0
  9
$HIDETEXT
280
     1
  9
$XCLIPFRAME
290
     0
  9
$HALOGAP
280
     0
  9
$OBSCOLOR
 70
   257
  9
$OBSLTYPE
280
     0
  9
$INTERSECTIONDISPLAY
280
     0
  9
$INTERSECTIONCOLOR
 70
   257
  9
$DIMASSOC
280
     2
  9
$PROJECTNAME
  1

  9
$CAMERADISPLAY
290
     0
  9
$LENSLENGTH
 40
50.0
  9
$CAMERAHEIGHT
 40
0.0
  9
$STEPSPERSEC
 40
2.0
  9
$STEPSIZE
 40
6.0
  9
$3DDWFPREC
 40
2.0
  9
$PSOLWIDTH
 40
0.25
  9
$PSOLHEIGHT
 40
4.0
  9
$LOFTANG1
 40
1.570796326794897
  9
$LOFTANG2
 40
1.570796326794897
  9
$LOFTMAG1
 40
0.0
  9
$LOFTMAG2
 40
0.0
  9
$LOFTPARAM
 70
     7
  9
$LOFTNORMALS
280
     1
  9
$LATITUDE
 40
37.795
  9
$LONGITUDE
 40
-122.394
  9
$NORTHDIRECTION
 40
0.0
  9
$TIMEZONE
 70
 -8000
  9
$LIGHTGLYPHDISPLAY
280
     1
  9
$TILEMODELIGHTSYNCH
280
     1
  9
$CMATERIAL
347
44
  9
$SOLIDHIST
280
     0
  9
$SHOWHIST
280
     1
  9
$DWFFRAME
280
     2
  9
$DGNFRAME
280
     2
  9
$REALWORLDSCALE
290
     1
  9
$INTERFERECOLOR
 62
   256
  9
$CSHADOW
280
     0
  9
$SHADOWPLANELOCATION
 40
0.0
  0
ENDSEC
  0
SECTION
  2
CLASSES
  0
CLASS
  1
ACDBDICTIONARYWDFLT
  2
AcDbDictionaryWithDefault
  3
ObjectDBX Classes
 90
        0
 91
        3
280
     0
281
     0
  0
CLASS
  1
VISUALSTYLE
  2
AcDbVisualStyle
  3
ObjectDBX Classes
 90
     4095
 91
        3
280
     0
281
     0
  0
CLASS
  1
MATERIAL
  2
AcDbMaterial
  3
ObjectDBX Classes
 90
     1153
 91
        3
280
     0
281
     0
  0
CLASS
  1
SCALE
  2
AcDbScale
  3
ObjectDBX Classes
 90
     1153
 91
        3
280
     0
281
     0
  0
CLASS
  1
TABLESTYLE
  2
AcDbTableStyle
  3
ObjectDBX Classes
 90
     4095
 91
        3
280
     0
281
     0
  0
CLASS
  1
MLEADERSTYLE
  2
AcDbMLeaderStyle
  3
ACDB_MLEADERSTYLE_CLASS
 90
     4095
 91
        3
280
     0
281
     0
  0
CLASS
  1
SUN
  2
AcDbSun
  3
SCENEOE
 90
     1153
 91
        3
280
     0
281
     0
  0
CLASS
  1
DICTIONARYVAR
  2
AcDbDictionaryVar
  3
ObjectDBX Classes
 90
        0
 91
        3
280
     0
281
     0
  0
CLASS
  1
CELLSTYLEMAP
  2
AcDbCellStyleMap
  3
ObjectDBX Classes
 90
     1152
 91
        3
280
     0
281
     0
  0
ENDSEC
  0
SECTION
  2
TABLES
  0
TABLE
  2
VPORT
  5
8
330
0
100
AcDbSymbolTable
 70
     1
  0
VPORT
  5
29
330
8
100
AcDbSymbolTableRecord
100
AcDbViewportTableRecord
  2
*Active
 70
     0
 10
0.0
 20
0.0
 11
1.0
 21
1.0
 12
10.42990654205607
 22
4.5
 13
0.0
 23
0.0
 14
0.5
 24
0.5
 15
0.5
 25
0.5
 16
0.0
 26
0.0
 36
1.0
 17
0.0
 27
0.0
 37
0.0
 40
9.0
 41
1.972972972850329
 42
50.0
 43
0.0
 44
0.0
 50
0.0
 51
0.0
 71
     0
 72
   100
 73
     1
 74
     3
 75
     0
 76
     0
 77
     0
 78
     0
281
     0
 65
     1
110
0.0
120
0.0
130
0.0
111
1.0
121
0.0
131
0.0
112
0.0
122
1.0
132
0.0
 79
     0
146
0.0
348
2F
 60
     3
 61
     5
292
     1
282
     1
141
0.0
142
0.0
 63
   250
361
6D
  0
ENDTAB
  0
TABLE
  2
LTYPE
  5
5
330
0
100
AcDbSymbolTable
 70
     1
  0
LTYPE
  5
14
330
5
100
AcDbSymbolTableRecord
100
AcDbLinetypeTableRecord
  2
ByBlock
 70
     0
  3

 72
    65
 73
     0
 40
0.0
  0
LTYPE
  5
15
330
5
100
AcDbSymbolTableRecord
100
AcDbLinetypeTableRecord
  2
ByLayer
 70
     0
  3

 72
    65
 73
     0
 40
0.0
  0
LTYPE
  5
16
330
5
100
AcDbSymbolTableRecord
100
AcDbLinetypeTableRecord
  2
Continuous
 70
     0
  3
Solid line
 72
    65
 73
     0
 40
0.0
  0
ENDTAB
  0
TABLE
  2
LAYER
  5
2
330
0
100
AcDbSymbolTable
 70
     2
  0
LAYER
  5
10
330
2
100
AcDbSymbolTableRecord
100
AcDbLayerTableRecord
  2
0
 70
     0
 62
     7
  6
Continuous
370
    -3
390
F
347
46
  0
LAYER
  5
6F
330
2
100
AcDbSymbolTableRecord
100
AcDbLayerTableRecord
  2
Plan 1
 70
     0
 62
     7
  6
Continuous
370
    -3
390
F
347
46
  0
ENDTAB
  0
TABLE
  2
STYLE
  5
3
330
0
100
AcDbSymbolTable
 70
     1
  0
STYLE
  5
11
330
3
100
AcDbSymbolTableRecord
100
AcDbTextStyleTableRecord
  2
Standard
 70
     0
 40
0.0
 41
1.0
 50
0.0
 71
     0
 42
0.2
  3
txt
  4

  0
ENDTAB
  0
TABLE
  2
VIEW
  5
6
330
0
100
AcDbSymbolTable
 70
     0
  0
ENDTAB
  0
TABLE
  2
UCS
  5
7
330
0
100
AcDbSymbolTable
 70
     0
  0
ENDTAB
  0
TABLE
  2
APPID
  5
9
330
0
100
AcDbSymbolTable
 70
     3
  0
APPID
  5
12
330
9
100
AcDbSymbolTableRecord
100
AcDbRegAppTableRecord
  2
ACAD
 70
     0
  0
APPID
  5
6E
330
9
100
AcDbSymbolTableRecord
100
AcDbRegAppTableRecord
  2
ODA
 70
     0
  0
APPID
  5
D2
330
9
100
AcDbSymbolTableRecord
100
AcDbRegAppTableRecord
  2
ACAD_MLEADERVER
 70
     0
  0
ENDTAB
  0
TABLE
  2
DIMSTYLE
  5
A
330
0
100
AcDbSymbolTable
 70
     1
100
AcDbDimStyleTable
  0
DIMSTYLE
105
27
330
A
100
AcDbSymbolTableRecord
100
AcDbDimStyleTableRecord
  2
Standard
 70
     0
178
     0
340
11
  0
ENDTAB
  0
TABLE
  2
BLOCK_RECORD
  5
1
330
0
100
AcDbSymbolTable
 70
     1
  0
BLOCK_RECORD
  5
1F
330
1
100
AcDbSymbolTableRecord
100
AcDbBlockTableRecord
  2
*Model_Space
340
22
 70
     0
280
     1
281
     0
  0
BLOCK_RECORD
  5
1B
330
1
100
AcDbSymbolTableRecord
100
AcDbBlockTableRecord
  2
*Paper_Space
340
1E
 70
     0
280
     1
281
     0
  0
BLOCK_RECORD
  5
23
330
1
100
AcDbSymbolTableRecord
100
AcDbBlockTableRecord
  2
*Paper_Space0
340
26
 70
     0
280
     1
281
     0
  0
ENDTAB
  0
ENDSEC
  0
SECTION
  2
BLOCKS
  0
BLOCK
  5
20
330
1F
100
AcDbEntity
  8
0
100
AcDbBlockBegin
  2
*Model_Space
 70
     0
 10
0.0
 20
0.0
 30
0.0
  3
*Model_Space
  1

  0
ENDBLK
  5
21
330
1F
100
AcDbEntity
  8
0
100
AcDbBlockEnd
  0
BLOCK
  5
1C
330
1B
100
AcDbEntity
 67
     1
  8
0
100
AcDbBlockBegin
  2
*Paper_Space
 70
     0
 10
0.0
 20
0.0
 30
0.0
  3
*Paper_Space
  1

  0
ENDBLK
  5
1D
330
1B
100
AcDbEntity
 67
     1
  8
0
100
AcDbBlockEnd
  0
BLOCK
  5
24
330
23
100
AcDbEntity
  8
0
100
AcDbBlockBegin
  2
*Paper_Space0
 70
     0
 10
0.0
 20
0.0
 30
0.0
  3
*Paper_Space0
  1

  0
ENDBLK
  5
25
330
23
100
AcDbEntity
  8
0
100
AcDbBlockEnd
  0
ENDSEC
  0
SECTION
  2
ENTITIES
  0
SPLINE
  5
70
330
1F
100
AcDbEntity
  8
Plan 1
 62
   250
370
    20
100
AcDbSpline
210
0.0
220
0.0
230
1.0
 70
    11
 71
     3
 72
   161
 73
   157
 74
     0
 42
0.0000000001
 43
0.0000000001
 40
0.0
 40
0.0
 40
0.0
 40
0.0
 40
0.0192307692307692
 40
0.0192307692307692
 40
0.0192307692307692
 40
0.0384615384615385
 40
0.0384615384615385
 40
0.0384615384615385
 40
0.0576923076923077
 40
0.0576923076923077
 40
0.0576923076923077
 40
0.0769230769230769
 40
0.0769230769230769
 40
0.0769230769230769
 40
0.0961538461538462
 40
0.0961538461538462
 40
0.0961538461538462
 40
0.1153846153846154
 40
0.1153846153846154
 40
0.1153846153846154
 40
0.1346153846153846
 40
0.1346153846153846
 40
0.1346153846153846
 40
0.1538461538461539
 40
0.1538461538461539
 40
0.1538461538461539
 40
0.1730769230769231
 40
0.1730769230769231
 40
0.1730769230769231
 40
0.1923076923076923
 40
0.1923076923076923
 40
0.1923076923076923
 40
0.2115384615384616
 40
0.2115384615384616
 40
0.2115384615384616
 40
0.2307692307692308
 40
0.2307692307692308
 40
0.2307692307692308
 40
0.25
 40
0.25
 40
0.25
 40
0.2692307692307693
 40
0.2692307692307693
 40
0.2692307692307693
 40
0.2884615384615385
 40
0.2884615384615385
 40
0.2884615384615385
 40
0.3076923076923077
 40
0.3076923076923077
 40
0.3076923076923077
 40
0.3269230769230769
 40
0.3269230769230769
 40
0.3269230769230769
 40
0.3461538461538461
 40
0.3461538461538461
 40
0.3461538461538461
 40
0.3653846153846154
 40
0.3653846153846154
 40
0.3653846153846154
 40
0.3846153846153846
 40
0.3846153846153846
 40
0.3846153846153846
 40
0.4038461538461539
 40
0.4038461538461539
 40
0.4038461538461539
 40
0.4230769230769231
 40
0.4230769230769231
 40
0.4230769230769231
 40
0.4423076923076923
 40
0.4423076923076923
 40
0.4423076923076923
 40
0.4615384615384616
 40
0.4615384615384616
 40
0.4615384615384616
 40
0.4807692307692308
 40
0.4807692307692308
 40
0.4807692307692308
 40
0.5
 40
0.5
 40
0.5
 40
0.5192307692307693
 40
0.5192307692307693
 40
0.5192307692307693
 40
0.5384615384615385
 40
0.5384615384615385
 40
0.5384615384615385
 40
0.5576923076923077
 40
0.5576923076923077
 40
0.5576923076923077
 40
0.576923076923077
 40
0.576923076923077
 40
0.576923076923077
 40
0.5961538461538461
 40
0.5961538461538461
 40
0.5961538461538461
 40
0.6153846153846154
 40
0.6153846153846154
 40
0.6153846153846154
 40
0.6346153846153847
 40
0.6346153846153847
 40
0.6346153846153847
 40
0.6538461538461539
 40
0.6538461538461539
 40
0.6538461538461539
 40
0.6730769230769231
 40
0.6730769230769231
 40
0.6730769230769231
 40
0.6923076923076923
 40
0.6923076923076923
 40
0.6923076923076923
 40
0.7115384615384616
 40
0.7115384615384616
 40
0.7115384615384616
 40
0.7307692307692308
 40
0.7307692307692308
 40
0.7307692307692308
 40
0.75
 40
0.75
 40
0.75
 40
0.7692307692307693
 40
0.7692307692307693
 40
0.7692307692307693
 40
0.7884615384615385
 40
0.7884615384615385
 40
0.7884615384615385
 40
0.8076923076923077
 40
0.8076923076923077
 40
0.8076923076923077
 40
0.826923076923077
 40
0.826923076923077
 40
0.826923076923077
 40
0.8461538461538463
 40
0.8461538461538463
 40
0.8461538461538463
 40
0.8653846153846154
 40
0.8653846153846154
 40
0.8653846153846154
 40
0.8846153846153847
 40
0.8846153846153847
 40
0.8846153846153847
 40
0.9038461538461539
 40
0.9038461538461539
 40
0.9038461538461539
 40
0.9230769230769231
 40
0.9230769230769231
 40
0.9230769230769231
 40
0.9423076923076924
 40
0.9423076923076924
 40
0.9423076923076924
 40
0.9615384615384616
 40
0.9615384615384616
 40
0.9615384615384616
 40
0.9807692307692308
 40
0.9807692307692308
 40
0.9807692307692308
 40
1.0
 40
1.0
 40
1.0
 40
1.0
 10
1.42008
 20
1.49346
 30
0.0
 10
1.52313
 20
1.10832
 30
0.0
 10
1.29193
 20
-0.47042
 30
0.0
 10
1.15685
 20
-0.78529
 30
0.0
 10
1.10235
 20
-0.91242
 30
0.0
 10
0.05541
 20
-2.46819
 30
0.0
 10
-0.25152
 20
-2.09843
 30
0.0
 10
-0.34353
 20
-1.98756
 30
0.0
 10
-1.48111
 20
-2.16635
 30
0.0
 10
-1.31324
 20
-2.23079
 30
0.0
 10
-1.16673
 20
-2.28703
 30
0.0
 10
-1.35546
 20
-2.35172
 30
0.0
 10
-1.47255
 20
-2.28355
 30
0.0
 10
-1.47255
 20
-2.28355
 30
0.0
 10
-1.47268
 20
-2.28396
 30
0.0
 10
-1.47268
 20
-2.28396
 30
0.0
 10
-1.6321
 20
-2.19108
 30
0.0
 10
-2.08654
 20
-2.15693
 30
0.0
 10
-2.25776
 20
-2.20151
 30
0.0
 10
-2.91383
 20
-2.37248
 30
0.0
 10
-2.23342
 20
-1.93332
 30
0.0
 10
-2.36602
 20
-1.80071
 30
0.0
 10
-2.43419
 20
-1.73266
 30
0.0
 10
-3.29911
 20
-1.9502
 30
0.0
 10
-3.34369
 20
-2.1208
 30
0.0
 10
-3.3643
 20
-2.19989
 30
0.0
 10
-3.71356
 20
-2.21317
 30
0.0
 10
-3.55836
 20
-2.04655
 30
0.0
 10
-3.35288
 20
-1.82603
 30
0.0
 10
-3.8191
 20
-1.99564
 30
0.0
 10
-3.92414
 20
-2.02879
 30
0.0
 10
-4.07127
 20
-1.84168
 30
0.0
 10
-4.03924
 20
-1.83708
 30
0.0
 10
-4.29452
 20
-1.86166
 30
0.0
 10
-4.48746
 20
-1.88028
 30
0.0
 10
-4.52819
 20
-1.89667
 30
0.0
 10
-4.60592
 20
-1.98694
 30
0.0
 10
-4.80656
 20
-2.21986
 30
0.0
 10
-4.816
 20
-1.93466
 30
0.0
 10
-4.96189
 20
-1.87705
 30
0.0
 10
-5.0914
 20
-1.8259
 30
0.0
 10
-5.91448
 20
-1.93802
 30
0.0
 10
-6.004
 20
-1.97229
 30
0.0
 10
-6.11574
 20
-2.01526
 30
0.0
 10
-5.89137
 20
-2.04717
 30
0.0
 10
-5.8406
 20
-2.0484
 30
0.0
 10
-5.62355
 20
-2.05387
 30
0.0
 10
-5.76795
 20
-2.20945
 30
0.0
 10
-6.44812
 20
-2.09819
 30
0.0
 10
-7.25617
 20
-1.96609
 30
0.0
 10
-7.49369
 20
-2.28903
 30
0.0
 10
-7.70824
 20
-1.81846
 30
0.0
 10
-8.31925
 20
-0.47862
 30
0.0
 10
-8.6062
 20
1.78052
 30
0.0
 10
-8.46328
 20
3.2259
 30
0.0
 10
-8.08669
 20
3.30971
 30
0.0
 10
-7.98997
 20
3.42071
 30
0.0
 10
-7.69496
 20
3.20256
 30
0.0
 10
-7.44675
 20
3.49819
 30
0.0
 10
-7.46451
 20
3.57529
 30
0.0
 10
-7.11947
 20
3.04288
 30
0.0
 10
-6.4792
 20
3.04545
 30
0.0
 10
-6.13169
 20
3.37137
 30
0.0
 10
-6.36916
 20
2.96616
 30
0.0
 10
-6.88208
 20
2.09093
 30
0.0
 10
-6.2486
 20
2.36235
 30
0.0
 10
-6.17199
 20
2.68542
 30
0.0
 10
-6.14033
 20
2.81852
 30
0.0
 10
-5.97258
 20
3.05605
 30
0.0
 10
-5.84681
 20
3.14557
 30
0.0
 10
-5.65597
 20
3.2814
 30
0.0
 10
-5.06868
 20
3.1668
 30
0.0
 10
-5.04571
 20
2.96802
 30
0.0
 10
-5.02075
 20
2.75222
 30
0.0
 10
-5.67385
 20
2.41797
 30
0.0
 10
-5.70762
 20
1.80809
 30
0.0
 10
-5.7286
 20
1.42988
 30
0.0
 10
-5.52101
 20
1.15375
 30
0.0
 10
-5.374
 20
1.42864
 30
0.0
 10
-5.3257
 20
1.51903
 30
0.0
 10
-5.45842
 20
1.54262
 30
0.0
 10
-5.44924
 20
1.78201
 30
0.0
 10
-5.43744
 20
2.08744
 30
0.0
 10
-5.37039
 20
1.98364
 30
0.0
 10
-5.14851
 20
2.3061
 30
0.0
 10
-4.98301
 20
2.54672
 30
0.0
 10
-4.66292
 20
2.80672
 30
0.0
 10
-4.5323
 20
2.80672
 30
0.0
 10
-4.26672
 20
2.80672
 30
0.0
 10
-4.06656
 20
3.11812
 30
0.0
 10
-3.62616
 20
2.94827
 30
0.0
 10
-3.24821
 20
2.80251
 30
0.0
 10
-3.52237
 20
2.42356
 30
0.0
 10
-3.52162
 20
2.06796
 30
0.0
 10
-3.52137
 20
1.90952
 30
0.0
 10
-3.8925
 20
1.63339
 30
0.0
 10
-3.8925
 20
1.54424
 30
0.0
 10
-3.8925
 20
1.43933
 30
0.0
 10
-4.08097
 20
1.46217
 30
0.0
 10
-3.91385
 20
1.38594
 30
0.0
 10
-3.79477
 20
1.33168
 30
0.0
 10
-3.67272
 20
1.39028
 30
0.0
 10
-3.57203
 20
1.5502
 30
0.0
 10
-3.35884
 20
1.88855
 30
0.0
 10
-3.25715
 20
1.18765
 30
0.0
 10
-3.05117
 20
1.18765
 30
0.0
 10
-2.74883
 20
1.18765
 30
0.0
 10
-3.21779
 20
1.92915
 30
0.0
 10
-3.21779
 20
2.02898
 30
0.0
 10
-3.21779
 20
2.22491
 30
0.0
 10
-2.963
 20
2.67189
 30
0.0
 10
-2.85126
 20
2.67189
 30
0.0
 10
-2.81462
 20
2.67189
 30
0.0
 10
-2.08455
 20
2.15053
 30
0.0
 10
-2.06692
 20
1.54412
 30
0.0
 10
-2.04879
 20
0.9176
 30
0.0
 10
-1.83225
 20
1.42605
 30
0.0
 10
-1.80891
 20
1.71733
 30
0.0
 10
-1.79587
 20
1.87886
 30
0.0
 10
-1.7539
 20
2.0106
 30
0.0
 10
-1.68164
 20
1.89376
 30
0.0
 10
-1.65705
 20
1.85391
 30
0.0
 10
-1.20746
 20
1.81343
 30
0.0
 10
-1.39855
 20
2.12769
 30
0.0
 10
-1.56741
 20
2.4052
 30
0.0
 10
-1.50732
 20
1.93102
 30
0.0
 10
-2.20772
 20
2.69077
 30
0.0
 10
-2.59523
 20
3.11118
 30
0.0
 10
-2.84679
 20
3.52029
 30
0.0
 10
-2.84679
 20
3.7305
 30
0.0
 10
-2.8469
 20
4.10833
 30
0.0
 10
-2.48149
 20
4.50515
 30
0.0
 10
-2.19828
 20
4.43475
 30
0.0
 10
-1.92873
 20
4.36783
 30
0.0
 10
-1.61025
 20
3.79942
 30
0.0
 10
-1.8186
 20
3.582
 30
0.0
 10
-1.95952
 20
3.43486
 30
0.0
 10
-2.04234
 20
3.2454
 30
0.0
 10
-1.82915
 20
3.2454
 30
0.0
 10
-1.44288
 20
3.2454
 30
0.0
 10
-1.63732
 20
3.8708
 30
0.0
 10
-1.32194
 20
3.47795
 30
0.0
 10
-1.16078
 20
3.27718
 30
0.0
 10
-0.93269
 20
3.2192
 30
0.0
 10
-0.85869
 20
3.13005
 30
0.0
 10
-0.76917
 20
3.02215
 30
0.0
 10
-0.68784
 20
3.08635
 30
0.0
 10
-0.68784
 20
3.26489
 30
0.0
 10
-0.68784
 20
3.56239
 30
0.0
 10
-1.67804
 20
4.05109
 30
0.0
 10
-1.201
 20
4.52812
 30
0.0
 10
-0.50581
 20
5.22331
 30
0.0
 10
0.89735
 20
3.84027
 30
0.0
 10
1.19907
 20
3.22864
 30
0.0
 10
1.58224
 20
2.45188
 30
0.0
 10
1.22328
 20
2.22937
 30
0.0
 10
1.42008
 20
1.49346
 30
0.0
  0
SPLINE
  5
71
330
1F
100
AcDbEntity
  8
Plan 1
 62
   250
370
    20
100
AcDbSpline
210
0.0
220
0.0
230
1.0
 70
    11
 71
     3
 72
   146
 73
   142
 74
     0
 42
0.0000000001
 43
0.0000000001
 40
0.0
 40
0.0
 40
0.0
 40
0.0
 40
0.0212765957446809
 40
0.0212765957446809
 40
0.0212765957446809
 40
0.0425531914893617
 40
0.0425531914893617
 40
0.0425531914893617
 40
0.0638297872340425
 40
0.0638297872340425
 40
0.0638297872340425
 40
0.0851063829787234
 40
0.0851063829787234
 40
0.0851063829787234
 40
0.1063829787234043
 40
0.1063829787234043
 40
0.1063829787234043
 40
0.1276595744680851
 40
0.1276595744680851
 40
0.1276595744680851
 40
0.148936170212766
 40
0.148936170212766
 40
0.148936170212766
 40
0.1702127659574468
 40
0.1702127659574468
 40
0.1702127659574468
 40
0.1914893617021277
 40
0.1914893617021277
 40
0.1914893617021277
 40
0.2127659574468085
 40
0.2127659574468085
 40
0.2127659574468085
 40
0.2340425531914894
 40
0.2340425531914894
 40
0.2340425531914894
 40
0.2553191489361702
 40
0.2553191489361702
 40
0.2553191489361702
 40
0.2765957446808511
 40
0.2765957446808511
 40
0.2765957446808511
 40
0.2978723404255319
 40
0.2978723404255319
 40
0.2978723404255319
 40
0.3191489361702128
 40
0.3191489361702128
 40
0.3191489361702128
 40
0.3404255319148936
 40
0.3404255319148936
 40
0.3404255319148936
 40
0.3617021276595744
 40
0.3617021276595744
 40
0.3617021276595744
 40
0.3829787234042553
 40
0.3829787234042553
 40
0.3829787234042553
 40
0.4042553191489361
 40
0.4042553191489361
 40
0.4042553191489361
 40
0.425531914893617
 40
0.425531914893617
 40
0.425531914893617
 40
0.4468085106382979
 40
0.4468085106382979
 40
0.4468085106382979
 40
0.4680851063829787
 40
0.4680851063829787
 40
0.4680851063829787
 40
0.4893617021276596
 40
0.4893617021276596
 40
0.4893617021276596
 40
0.5106382978723404
 40
0.5106382978723404
 40
0.5106382978723404
 40
0.5319148936170213
 40
0.5319148936170213
 40
0.5319148936170213
 40
0.5531914893617021
 40
0.5531914893617021
 40
0.5531914893617021
 40
0.5744680851063829
 40
0.5744680851063829
 40
0.5744680851063829
 40
0.5957446808510638
 40
0.5957446808510638
 40
0.5957446808510638
 40
0.6170212765957447
 40
0.6170212765957447
 40
0.6170212765957447
 40
0.6382978723404256
 40
0.6382978723404256
 40
0.6382978723404256
 40
0.6595744680851063
 40
0.6595744680851063
 40
0.6595744680851063
 40
0.6808510638297872
 40
0.6808510638297872
 40
0.6808510638297872
 40
0.7021276595744681
 40
0.7021276595744681
 40
0.7021276595744681
 40
0.7234042553191489
 40
0.7234042553191489
 40
0.7234042553191489
 40
0.7446808510638298
 40
0.7446808510638298
 40
0.7446808510638298
 40
0.7659574468085106
 40
0.7659574468085106
 40
0.7659574468085106
 40
0.7872340425531915
 40
0.7872340425531915
 40
0.7872340425531915
 40
0.8085106382978723
 40
0.8085106382978723
 40
0.8085106382978723
 40
0.8297872340425532
 40
0.8297872340425532
 40
0.8297872340425532
 40
0.851063829787234
 40
0.851063829787234
 40
0.851063829787234
 40
0.8723404255319148
 40
0.8723404255319148
 40
0.8723404255319148
 40
0.8936170212765957
 40
0.8936170212765957
 40
0.8936170212765957
 40
0.9148936170212766
 40
0.9148936170212766
 40
0.9148936170212766
 40
0.9361702127659575
 40
0.9361702127659575
 40
0.9361702127659575
 40
0.9574468085106382
 40
0.9574468085106382
 40
0.9574468085106382
 40
0.9787234042553191
 40
0.9787234042553191
 40
0.9787234042553191
 40
1.0
 40
1.0
 40
1.0
 40
1.0
 10
-5.93446
 20
3.54913
 30
0.0
 10
-6.04894
 20
3.54913
 30
0.0
 10
-6.72984
 20
3.19327
 30
0.0
 10
-6.83836
 20
3.30179
 30
0.0
 10
-6.83836
 20
3.30179
 30
0.0
 10
-6.8381
 20
3.30191
 30
0.0
 10
-6.8381
 20
3.30191
 30
0.0
 10
-6.88366
 20
3.3476
 30
0.0
 10
-6.85821
 20
3.38063
 30
0.0
 10
-6.77738
 20
3.38063
 30
0.0
 10
-6.68649
 20
3.38063
 30
0.0
 10
-6.4558
 20
3.5629
 30
0.0
 10
-6.4558
 20
3.63479
 30
0.0
 10
-6.4558
 20
3.73598
 30
0.0
 10
-6.7441
 20
3.73325
 30
0.0
 10
-6.82866
 20
3.63144
 30
0.0
 10
-6.87733
 20
3.57284
 30
0.0
 10
-7.02013
 20
3.56985
 30
0.0
 10
-7.28037
 20
3.62213
 30
0.0
 10
-7.80694
 20
3.72791
 30
0.0
 10
-8.75306
 20
3.22766
 30
0.0
 10
-8.4958
 20
3.95662
 30
0.0
 10
-8.33935
 20
4.4
 30
0.0
 10
-8.1762
 20
4.07098
 30
0.0
 10
-8.1762
 20
4.25498
 30
0.0
 10
-8.1762
 20
4.35021
 30
0.0
 10
-8.39336
 20
4.68694
 30
0.0
 10
-8.1089
 20
4.47711
 30
0.0
 10
-7.79812
 20
4.24778
 30
0.0
 10
-7.49764
 20
4.55545
 30
0.0
 10
-7.80544
 20
4.61704
 30
0.0
 10
-7.91682
 20
4.63939
 30
0.0
 10
-8.04135
 20
4.7705
 30
0.0
 10
-8.04135
 20
4.86561
 30
0.0
 10
-8.04135
 20
4.99276
 30
0.0
 10
-8.37784
 20
5.03261
 30
0.0
 10
-8.09276
 20
5.25002
 30
0.0
 10
-7.85276
 20
5.43304
 30
0.0
 10
-8.14503
 20
5.51226
 30
0.0
 10
-7.86094
 20
5.79634
 30
0.0
 10
-7.56184
 20
6.09545
 30
0.0
 10
-7.53142
 20
5.76903
 30
0.0
 10
-6.98697
 20
6.13108
 30
0.0
 10
-6.59201
 20
6.39369
 30
0.0
 10
-6.33114
 20
6.36873
 30
0.0
 10
-6.49143
 20
6.08353
 30
0.0
 10
-6.66452
 20
5.77561
 30
0.0
 10
-6.41098
 20
5.71787
 30
0.0
 10
-6.17457
 20
6.20931
 30
0.0
 10
-5.93953
 20
6.69789
 30
0.0
 10
-5.23652
 20
6.72223
 30
0.0
 10
-5.1033
 20
6.65096
 30
0.0
 10
-4.92412
 20
6.5551
 30
0.0
 10
-5.2544
 20
5.8876
 30
0.0
 10
-5.31363
 20
5.76965
 30
0.0
 10
-5.76248
 20
5.82167
 30
0.0
 10
-6.22896
 20
5.77922
 30
0.0
 10
-6.44041
 20
5.40411
 30
0.0
 10
-6.61188
 20
5.09967
 30
0.0
 10
-6.58865
 20
5.29522
 30
0.0
 10
-6.89447
 20
5.19415
 30
0.0
 10
-7.12069
 20
5.1194
 30
0.0
 10
-7.17508
 20
5.23575
 30
0.0
 10
-7.09313
 20
5.05571
 30
0.0
 10
-6.97953
 20
4.80639
 30
0.0
 10
-6.65024
 20
4.88909
 30
0.0
 10
-6.3227
 20
5.24915
 30
0.0
 10
-5.9229
 20
5.6888
 30
0.0
 10
-5.16501
 20
5.69378
 30
0.0
 10
-5.74684
 20
5.25014
 30
0.0
 10
-6.36691
 20
4.77732
 30
0.0
 10
-5.67668
 20
4.15813
 30
0.0
 10
-5.73914
 20
4.71189
 30
0.0
 10
-5.76533
 20
4.94519
 30
0.0
 10
-5.64626
 20
5.11443
 30
0.0
 10
-5.26756
 20
5.38175
 30
0.0
 10
-4.92041
 20
5.62672
 30
0.0
 10
-4.87136
 20
6.00964
 30
0.0
 10
-4.7035
 20
6.30229
 30
0.0
 10
-4.52371
 20
6.61568
 30
0.0
 10
-4.28096
 20
6.74593
 30
0.0
 10
-4.19194
 20
6.57681
 30
0.0
 10
-4.1398
 20
6.47786
 30
0.0
 10
-4.09721
 20
6.45141
 30
0.0
 10
-3.98856
 20
6.45079
 30
0.0
 10
-3.85236
 20
6.45005
 30
0.0
 10
-3.90377
 20
6.3491
 30
0.0
 10
-3.78357
 20
6.3491
 30
0.0
 10
-3.74124
 20
6.3491
 30
0.0
 10
-3.5658
 20
6.25698
 30
0.0
 10
-3.39383
 20
6.14448
 30
0.0
 10
-2.93567
 20
5.84463
 30
0.0
 10
-2.01401
 20
5.61258
 30
0.0
 10
-1.51414
 20
5.66324
 30
0.0
 10
-0.61184
 20
5.75462
 30
0.0
 10
-0.43305
 20
5.36487
 30
0.0
 10
-0.06366
 20
5.28653
 30
0.0
 10
0.29615
 20
5.21017
 30
0.0
 10
0.8467
 20
5.47836
 30
0.0
 10
1.19125
 20
5.11245
 30
0.0
 10
1.34247
 20
4.95191
 30
0.0
 10
1.4711
 20
5.1271
 30
0.0
 10
1.59365
 20
4.88995
 30
0.0
 10
1.70788
 20
4.66906
 30
0.0
 10
1.47794
 20
4.71662
 30
0.0
 10
1.63972
 20
4.54441
 30
0.0
 10
1.88953
 20
4.27857
 30
0.0
 10
1.15598
 20
4.5901
 30
0.0
 10
0.92553
 20
4.62698
 30
0.0
 10
0.34135
 20
4.72034
 30
0.0
 10
-0.04567
 20
5.1317
 30
0.0
 10
-0.79549
 20
5.18931
 30
0.0
 10
-1.10391
 20
5.21303
 30
0.0
 10
-1.93791
 20
5.05372
 30
0.0
 10
-2.25639
 20
4.94036
 30
0.0
 10
-2.90316
 20
4.71016
 30
0.0
 10
-3.31017
 20
4.53708
 30
0.0
 10
-3.51143
 20
3.85046
 30
0.0
 10
-3.6146
 20
3.49846
 30
0.0
 10
-4.23778
 20
3.24703
 30
0.0
 10
-4.61449
 20
3.37852
 30
0.0
 10
-4.87063
 20
3.46792
 30
0.0
 10
-4.93496
 20
3.42657
 30
0.0
 10
-5.0806
 20
3.51535
 30
0.0
 10
-5.32247
 20
3.66286
 30
0.0
 10
-5.61264
 20
3.45538
 30
0.0
 10
-5.61264
 20
3.86897
 30
0.0
 10
-5.61264
 20
3.98109
 30
0.0
 10
-5.58557
 20
4.03758
 30
0.0
 10
-5.45842
 20
4.1903
 30
0.0
 10
-5.10753
 20
4.61184
 30
0.0
 10
-5.27416
 20
4.90586
 30
0.0
 10
-5.52696
 20
4.51052
 30
0.0
 10
-5.6114
 20
4.37853
 30
0.0
 10
-5.71395
 20
4.32564
 30
0.0
 10
-5.71395
 20
4.27088
 30
0.0
 10
-5.71395
 20
4.14623
 30
0.0
 10
-5.99058
 20
4.02058
 30
0.0
 10
-5.88542
 20
3.72979
 30
0.0
 10
-5.84158
 20
3.60873
 30
0.0
 10
-5.85772
 20
3.54913
 30
0.0
 10
-5.93446
 20
3.54913
 30
0.0
  0
SPLINE
  5
72
330
1F
100
AcDbEntity
  8
Plan 1
 62
   250
370
    20
100
AcDbSpline
210
0.0
220
0.0
230
1.0
 70
    11
 71
     3
 72
   149
 73
   145
 74
     0
 42
0.0000000001
 43
0.0000000001
 40
0.0
 40
0.0
 40
0.0
 40
0.0
 40
0.0208333333333333
 40
0.0208333333333333
 40
0.0208333333333333
 40
0.0416666666666667
 40
0.0416666666666667
 40
0.0416666666666667
 40
0.0625
 40
0.0625
 40
0.0625
 40
0.0833333333333333
 40
0.0833333333333333
 40
0.0833333333333333
 40
0.1041666666666667
 40
0.1041666666666667
 40
0.1041666666666667
 40
0.125
 40
0.125
 40
0.125
 40
0.1458333333333333
 40
0.1458333333333333
 40
0.1458333333333333
 40
0.1666666666666667
 40
0.1666666666666667
 40
0.1666666666666667
 40
0.1875
 40
0.1875
 40
0.1875
 40
0.2083333333333333
 40
0.2083333333333333
 40
0.2083333333333333
 40
0.2291666666666667
 40
0.2291666666666667
 40
0.2291666666666667
 40
0.25
 40
0.25
 40
0.25
 40
0.2708333333333333
 40
0.2708333333333333
 40
0.2708333333333333
 40
0.2916666666666666
 40
0.2916666666666666
 40
0.2916666666666666
 40
0.3125
 40
0.3125
 40
0.3125
 40
0.3333333333333333
 40
0.3333333333333333
 40
0.3333333333333333
 40
0.3541666666666666
 40
0.3541666666666666
 40
0.3541666666666666
 40
0.375
 40
0.375
 40
0.375
 40
0.3958333333333333
 40
0.3958333333333333
 40
0.3958333333333333
 40
0.4166666666666666
 40
0.4166666666666666
 40
0.4166666666666666
 40
0.4375
 40
0.4375
 40
0.4375
 40
0.4583333333333333
 40
0.4583333333333333
 40
0.4583333333333333
 40
0.4791666666666666
 40
0.4791666666666666
 40
0.4791666666666666
 40
0.5
 40
0.5
 40
0.5
 40
0.5208333333333333
 40
0.5208333333333333
 40
0.5208333333333333
 40
0.5416666666666666
 40
0.5416666666666666
 40
0.5416666666666666
 40
0.5625
 40
0.5625
 40
0.5625
 40
0.5833333333333333
 40
0.5833333333333333
 40
0.5833333333333333
 40
0.6041666666666666
 40
0.6041666666666666
 40
0.6041666666666666
 40
0.625
 40
0.625
 40
0.625
 40
0.6458333333333333
 40
0.6458333333333333
 40
0.6458333333333333
 40
0.6666666666666666
 40
0.6666666666666666
 40
0.6666666666666666
 40
0.6875
 40
0.6875
 40
0.6875
 40
0.7083333333333333
 40
0.7083333333333333
 40
0.7083333333333333
 40
0.7291666666666666
 40
0.7291666666666666
 40
0.7291666666666666
 40
0.75
 40
0.75
 40
0.75
 40
0.7708333333333333
 40
0.7708333333333333
 40
0.7708333333333333
 40
0.7916666666666666
 40
0.7916666666666666
 40
0.7916666666666666
 40
0.8125
 40
0.8125
 40
0.8125
 40
0.8333333333333333
 40
0.8333333333333333
 40
0.8333333333333333
 40
0.8541666666666666
 40
0.8541666666666666
 40
0.8541666666666666
 40
0.875
 40
0.875
 40
0.875
 40
0.8958333333333333
 40
0.8958333333333333
 40
0.8958333333333333
 40
0.9166666666666666
 40
0.9166666666666666
 40
0.9166666666666666
 40
0.9375
 40
0.9375
 40
0.9375
 40
0.9583333333333333
 40
0.9583333333333333
 40
0.9583333333333333
 40
0.9791666666666666
 40
0.9791666666666666
 40
0.9791666666666666
 40
1.0
 40
1.0
 40
1.0
 40
1.0
 10
-8.28623
 20
6.25212
 30
0.0
 10
-8.91908
 20
5.81247
 30
0.0
 10
-8.69782
 20
5.33779
 30
0.0
 10
-8.97173
 20
4.54216
 30
0.0
 10
-9.17175
 20
3.96083
 30
0.0
 10
-9.12594
 20
4.00789
 30
0.0
 10
-9.14468
 20
3.37838
 30
0.0
 10
-9.17907
 20
2.22033
 30
0.0
 10
-9.12084
 20
0.10322
 30
0.0
 10
-8.83427
 20
-0.65107
 30
0.0
 10
-8.62879
 20
-1.19192
 30
0.0
 10
-8.35575
 20
-1.96347
 30
0.0
 10
-8.05727
 20
-2.55945
 30
0.0
 10
-7.91945
 20
-2.8346
 30
0.0
 10
-7.77554
 20
-3.17579
 30
0.0
 10
-7.73755
 20
-3.31784
 30
0.0
 10
-7.57677
 20
-3.91754
 30
0.0
 10
-7.17051
 20
-4.17915
 30
0.0
 10
-6.94093
 20
-4.62304
 30
0.0
 10
-6.12369
 20
-6.20313
 30
0.0
 10
-5.55651
 20
-5.31214
 30
0.0
 10
-5.40665
 20
-6.1567
 30
0.0
 10
-5.31315
 20
-6.68376
 30
0.0
 10
-4.96922
 20
-6.32568
 30
0.0
 10
-4.94476
 20
-6.66378
 30
0.0
 10
-4.93905
 20
-6.74213
 30
0.0
 10
-4.86194
 20
-6.94588
 30
0.0
 10
-4.82023
 20
-6.92986
 30
0.0
 10
-4.73804
 20
-6.89832
 30
0.0
 10
-4.7908
 20
-7.04322
 30
0.0
 10
-4.74275
 20
-7.04322
 30
0.0
 10
-4.71258
 20
-7.04322
 30
0.0
 10
-4.62493
 20
-7.10915
 30
0.0
 10
-4.43967
 20
-7.27093
 30
0.0
 10
-4.26411
 20
-7.42427
 30
0.0
 10
-4.19619
 20
-7.36343
 30
0.0
 10
-4.19619
 20
-7.41434
 30
0.0
 10
-4.19619
 20
-7.47045
 30
0.0
 10
-2.47327
 20
-8.49367
 30
0.0
 10
-2.3705
 20
-8.49367
 30
0.0
 10
-2.2749
 20
-8.49367
 30
0.0
 10
-2.34108
 20
-8.54259
 30
0.0
 10
-2.2482
 20
-8.57165
 30
0.0
 10
-2.21567
 20
-8.58182
 30
0.0
 10
-1.99937
 20
-8.66787
 30
0.0
 10
-1.76744
 20
-8.76298
 30
0.0
 10
-0.9651
 20
-9.09189
 30
0.0
 10
0.48276
 20
-9.52249
 30
0.0
 10
1.11674
 20
-9.6207
 30
0.0
 10
2.29145
 20
-9.80263
 30
0.0
 10
2.35483
 20
-9.30349
 30
0.0
 10
2.85938
 20
-9.55915
 30
0.0
 10
3.4155
 20
-9.84088
 30
0.0
 10
3.72392
 20
-9.34534
 30
0.0
 10
4.43923
 20
-9.43325
 30
0.0
 10
5.19971
 20
-9.52661
 30
0.0
 10
5.49609
 20
-9.44752
 30
0.0
 10
5.98803
 20
-9.01978
 30
0.0
 10
6.32624
 20
-8.72564
 30
0.0
 10
6.51883
 20
-8.65723
 30
0.0
 10
7.27026
 20
-8.56361
 30
0.0
 10
8.04453
 20
-8.46726
 30
0.0
 10
8.2463
 20
-7.97942
 30
0.0
 10
8.73301
 20
-7.95856
 30
0.0
 10
9.11543
 20
-7.94217
 30
0.0
 10
10.4395
 20
-6.93682
 30
0.0
 10
11.12897
 20
-6.13933
 30
0.0
 10
13.09521
 20
-3.86492
 30
0.0
 10
12.11035
 20
-4.45692
 30
0.0
 10
13.2308
 20
-2.97206
 30
0.0
 10
14.2575
 20
-1.61137
 30
0.0
 10
13.78059
 20
-1.00546
 30
0.0
 10
14.27551
 20
-0.00148
 30
0.0
 10
14.52198
 20
0.49865
 30
0.0
 10
14.38539
 20
0.71506
 30
0.0
 10
14.49329
 20
1.17062
 30
0.0
 10
14.55711
 20
1.44006
 30
0.0
 10
14.5596
 20
3.1237
 30
0.0
 10
14.4969
 20
3.58248
 30
0.0
 10
14.12926
 20
6.27209
 30
0.0
 10
13.62925
 20
6.34721
 30
0.0
 10
13.27961
 20
7.69587
 30
0.0
 10
13.16687
 20
8.13069
 30
0.0
 10
12.96287
 20
8.47859
 30
0.0
 10
12.60466
 20
8.70842
 30
0.0
 10
12.10155
 20
9.03124
 30
0.0
 10
12.47591
 20
9.29918
 30
0.0
 10
11.92375
 20
9.81471
 30
0.0
 10
11.69492
 20
10.02839
 30
0.0
 10
11.31399
 20
10.5361
 30
0.0
 10
11.1157
 20
10.71514
 30
0.0
 10
10.73068
 20
11.06304
 30
0.0
 10
10.12153
 20
10.98197
 30
0.0
 10
10.05423
 20
11.25028
 30
0.0
 10
10.03189
 20
11.33931
 30
0.0
 10
10.0489
 20
11.56988
 30
0.0
 10
10.0556
 20
11.69044
 30
0.0
 10
9.71104
 20
11.8084
 30
0.0
 10
9.58564
 20
11.81585
 30
0.0
 10
9.33719
 20
12.07051
 30
0.0
 10
8.86091
 20
12.55884
 30
0.0
 10
8.41368
 20
12.43592
 30
0.0
 10
8.16919
 20
12.71355
 30
0.0
 10
7.63468
 20
13.32046
 30
0.0
 10
7.43167
 20
12.42065
 30
0.0
 10
7.36053
 20
12.95765
 30
0.0
 10
7.28541
 20
13.52434
 30
0.0
 10
6.45079
 20
13.56729
 30
0.0
 10
5.79509
 20
13.56729
 30
0.0
 10
5.74194
 20
13.71952
 30
0.0
 10
5.75001
 20
13.75404
 30
0.0
 10
5.54055
 20
13.83238
 30
0.0
 10
4.24987
 20
14.31525
 30
0.0
 10
3.5825
 20
14.07263
 30
0.0
 10
2.32783
 20
14.07524
 30
0.0
 10
1.36818
 20
14.07723
 30
0.0
 10
1.59018
 20
13.80866
 30
0.0
 10
1.03791
 20
13.92277
 30
0.0
 10
0.61265
 20
14.01067
 30
0.0
 10
0.27293
 20
13.91085
 30
0.0
 10
0.17646
 20
13.66985
 30
0.0
 10
0.10432
 20
13.48969
 30
0.0
 10
0.12033
 20
13.51552
 30
0.0
 10
-0.04555
 20
13.60019
 30
0.0
 10
-0.79562
 20
13.983
 30
0.0
 10
-2.59734
 20
12.93145
 30
0.0
 10
-3.38552
 20
12.40451
 30
0.0
 10
-4.21344
 20
11.85099
 30
0.0
 10
-4.33785
 20
11.94398
 30
0.0
 10
-4.46636
 20
11.44721
 30
0.0
 10
-4.55202
 20
11.1157
 30
0.0
 10
-4.66601
 20
11.6311
 30
0.0
 10
-5.71903
 20
10.72793
 30
0.0
 10
-6.26709
 20
10.25785
 30
0.0
 10
-7.20265
 20
9.02566
 30
0.0
 10
-7.63548
 20
8.20383
 30
0.0
 10
-7.99692
 20
7.51759
 30
0.0
 10
-7.71234
 20
7.25933
 30
0.0
 10
-7.90939
 20
7.25933
 30
0.0
 10
-8.00972
 20
7.25933
 30
0.0
 10
-8.16355
 20
7.09146
 30
0.0
 10
-8.21235
 20
6.92868
 30
0.0
 10
-8.29678
 20
6.64671
 30
0.0
 10
-7.99395
 20
6.45512
 30
0.0
 10
-8.28623
 20
6.25212
 30
0.0
  0
SPLINE
  5
73
330
1F
100
AcDbEntity
  8
Plan 1
 62
   250
370
    20
100
AcDbSpline
210
0.0
220
0.0
230
1.0
 70
    11
 71
     3
 72
   152
 73
   148
 74
     0
 42
0.0000000001
 43
0.0000000001
 40
0.0
 40
0.0
 40
0.0
 40
0.0
 40
0.0204081632653061
 40
0.0204081632653061
 40
0.0204081632653061
 40
0.0408163265306122
 40
0.0408163265306122
 40
0.0408163265306122
 40
0.0612244897959184
 40
0.0612244897959184
 40
0.0612244897959184
 40
0.0816326530612245
 40
0.0816326530612245
 40
0.0816326530612245
 40
0.1020408163265306
 40
0.1020408163265306
 40
0.1020408163265306
 40
0.1224489795918367
 40
0.1224489795918367
 40
0.1224489795918367
 40
0.1428571428571428
 40
0.1428571428571428
 40
0.1428571428571428
 40
0.163265306122449
 40
0.163265306122449
 40
0.163265306122449
 40
0.1836734693877551
 40
0.1836734693877551
 40
0.1836734693877551
 40
0.2040816326530612
 40
0.2040816326530612
 40
0.2040816326530612
 40
0.2244897959183673
 40
0.2244897959183673
 40
0.2244897959183673
 40
0.2448979591836735
 40
0.2448979591836735
 40
0.2448979591836735
 40
0.2653061224489796
 40
0.2653061224489796
 40
0.2653061224489796
 40
0.2857142857142857
 40
0.2857142857142857
 40
0.2857142857142857
 40
0.3061224489795918
 40
0.3061224489795918
 40
0.3061224489795918
 40
0.3265306122448979
 40
0.3265306122448979
 40
0.3265306122448979
 40
0.3469387755102041
 40
0.3469387755102041
 40
0.3469387755102041
 40
0.3673469387755102
 40
0.3673469387755102
 40
0.3673469387755102
 40
0.3877551020408163
 40
0.3877551020408163
 40
0.3877551020408163
 40
0.4081632653061224
 40
0.4081632653061224
 40
0.4081632653061224
 40
0.4285714285714285
 40
0.4285714285714285
 40
0.4285714285714285
 40
0.4489795918367346
 40
0.4489795918367346
 40
0.4489795918367346
 40
0.4693877551020408
 40
0.4693877551020408
 40
0.4693877551020408
 40
0.4897959183673469
 40
0.4897959183673469
 40
0.4897959183673469
 40
0.5102040816326531
 40
0.5102040816326531
 40
0.5102040816326531
 40
0.5306122448979591
 40
0.5306122448979591
 40
0.5306122448979591
 40
0.5510204081632653
 40
0.5510204081632653
 40
0.5510204081632653
 40
0.5714285714285714
 40
0.5714285714285714
 40
0.5714285714285714
 40
0.5918367346938775
 40
0.5918367346938775
 40
0.5918367346938775
 40
0.6122448979591836
 40
0.6122448979591836
 40
0.6122448979591836
 40
0.6326530612244897
 40
0.6326530612244897
 40
0.6326530612244897
 40
0.6530612244897959
 40
0.6530612244897959
 40
0.6530612244897959
 40
0.673469387755102
 40
0.673469387755102
 40
0.673469387755102
 40
0.6938775510204082
 40
0.6938775510204082
 40
0.6938775510204082
 40
0.7142857142857142
 40
0.7142857142857142
 40
0.7142857142857142
 40
0.7346938775510203
 40
0.7346938775510203
 40
0.7346938775510203
 40
0.7551020408163265
 40
0.7551020408163265
 40
0.7551020408163265
 40
0.7755102040816326
 40
0.7755102040816326
 40
0.7755102040816326
 40
0.7959183673469387
 40
0.7959183673469387
 40
0.7959183673469387
 40
0.8163265306122448
 40
0.8163265306122448
 40
0.8163265306122448
 40
0.836734693877551
 40
0.836734693877551
 40
0.836734693877551
 40
0.8571428571428571
 40
0.8571428571428571
 40
0.8571428571428571
 40
0.8775510204081632
 40
0.8775510204081632
 40
0.8775510204081632
 40
0.8979591836734693
 40
0.8979591836734693
 40
0.8979591836734693
 40
0.9183673469387754
 40
0.9183673469387754
 40
0.9183673469387754
 40
0.9387755102040816
 40
0.9387755102040816
 40
0.9387755102040816
 40
0.9591836734693877
 40
0.9591836734693877
 40
0.9591836734693877
 40
0.9795918367346939
 40
0.9795918367346939
 40
0.9795918367346939
 40
1.0
 40
1.0
 40
1.0
 40
1.0
 10
4.67126
 20
0.4432
 30
0.0
 10
4.20341
 20
-0.18259
 30
0.0
 10
4.04696
 20
0.00068
 30
0.0
 10
4.19025
 20
0.94705
 30
0.0
 10
4.24786
 20
1.3276
 30
0.0
 10
4.17411
 20
2.35803
 30
0.0
 10
4.25928
 20
2.58214
 30
0.0
 10
4.44131
 20
3.06055
 30
0.0
 10
4.56025
 20
3.6194
 30
0.0
 10
5.15239
 20
3.698
 30
0.0
 10
5.39326
 20
3.72991
 30
0.0
 10
5.50836
 20
3.98308
 30
0.0
 10
5.69833
 20
4.05335
 30
0.0
 10
5.86818
 20
4.1163
 30
0.0
 10
6.46279
 20
4.09669
 30
0.0
 10
6.68281
 20
4.02107
 30
0.0
 10
7.17102
 20
3.85309
 30
0.0
 10
6.86943
 20
4.12289
 30
0.0
 10
7.11291
 20
4.07422
 30
0.0
 10
7.40147
 20
4.01648
 30
0.0
 10
7.78687
 20
4.00779
 30
0.0
 10
7.98106
 20
3.76095
 30
0.0
 10
8.10969
 20
3.59743
 30
0.0
 10
7.94295
 20
2.97537
 30
0.0
 10
8.07394
 20
2.97537
 30
0.0
 10
8.30799
 20
2.97537
 30
0.0
 10
8.35765
 20
3.2561
 30
0.0
 10
8.30228
 20
3.46867
 30
0.0
 10
8.15391
 20
4.03857
 30
0.0
 10
8.65615
 20
3.51697
 30
0.0
 10
8.65615
 20
3.28714
 30
0.0
 10
8.65615
 20
3.03596
 30
0.0
 10
9.09382
 20
2.6148
 30
0.0
 10
9.24232
 20
2.37666
 30
0.0
 10
9.43539
 20
2.06699
 30
0.0
 10
9.70072
 20
2.362
 30
0.0
 10
10.02529
 20
1.80178
 30
0.0
 10
10.13157
 20
1.61838
 30
0.0
 10
10.35643
 20
1.35913
 30
0.0
 10
10.40398
 20
1.26837
 30
0.0
 10
10.45576
 20
1.16978
 30
0.0
 10
10.47177
 20
0.46032
 30
0.0
 10
10.42335
 20
0.41152
 30
0.0
 10
10.36786
 20
0.35565
 30
0.0
 10
10.03112
 20
0.45175
 30
0.0
 10
9.90212
 20
0.56027
 30
0.0
 10
9.63219
 20
0.78736
 30
0.0
 10
9.21699
 20
0.47919
 30
0.0
 10
9.55583
 20
0.47919
 30
0.0
 10
9.79696
 20
0.47919
 30
0.0
 10
9.61207
 20
0.32299
 30
0.0
 10
9.39181
 20
0.35826
 30
0.0
 10
9.25449
 20
0.38023
 30
0.0
 10
8.99362
 20
0.32895
 30
0.0
 10
8.99362
 20
0.28003
 30
0.0
 10
8.99362
 20
0.17189
 30
0.0
 10
9.12884
 20
0.00265
 30
0.0
 10
9.49958
 20
0.15872
 30
0.0
 10
9.99661
 20
0.36793
 30
0.0
 10
10.11258
 20
0.04065
 30
0.0
 10
10.43068
 20
0.04065
 30
0.0
 10
10.52566
 20
0.04065
 30
0.0
 10
10.67702
 20
0.22801
 30
0.0
 10
10.70049
 20
0.3744
 30
0.0
 10
10.72532
 20
0.53011
 30
0.0
 10
10.73451
 20
0.53532
 30
0.0
 10
10.84526
 20
0.45772
 30
0.0
 10
10.99637
 20
0.35194
 30
0.0
 10
11.4919
 20
0.34001
 30
0.0
 10
11.69032
 20
0.29184
 30
0.0
 10
12.04417
 20
0.2058
 30
0.0
 10
12.23688
 20
0.3831
 30
0.0
 10
12.40115
 20
0.22566
 30
0.0
 10
12.59447
 20
0.04066
 30
0.0
 10
13.14935
 20
0.17637
 30
0.0
 10
13.36837
 20
0.38223
 30
0.0
 10
13.98409
 20
0.96095
 30
0.0
 10
13.31001
 20
-0.29781
 30
0.0
 10
13.26072
 20
-0.54949
 30
0.0
 10
13.17481
 20
-0.98841
 30
0.0
 10
13.44982
 20
-1.08215
 30
0.0
 10
13.05834
 20
-1.865
 30
0.0
 10
11.1322
 20
-1.97749
 30
0.0
 10
12.10179
 20
-2.1065
 30
0.0
 10
11.79461
 20
-2.21365
 30
0.0
 10
11.72818
 20
-2.23686
 30
0.0
 10
11.51735
 20
-2.45005
 30
0.0
 10
11.46545
 20
-2.25176
 30
0.0
 10
11.44099
 20
-2.1584
 30
0.0
 10
11.2735
 20
-2.1985
 30
0.0
 10
11.21564
 20
-2.0716
 30
0.0
 10
11.14598
 20
-1.91876
 30
0.0
 10
10.49053
 20
-1.95328
 30
0.0
 10
10.2545
 20
-1.90982
 30
0.0
 10
9.87841
 20
-1.84054
 30
0.0
 10
9.78107
 20
-2.11792
 30
0.0
 10
9.40063
 20
-2.11792
 30
0.0
 10
9.21786
 20
-2.11792
 30
0.0
 10
9.33272
 20
-2.23165
 30
0.0
 10
9.06465
 20
-2.1163
 30
0.0
 10
8.70966
 20
-1.96357
 30
0.0
 10
8.59469
 20
-2.1651
 30
0.0
 10
8.39156
 20
-2.02045
 30
0.0
 10
8.19812
 20
-1.88262
 30
0.0
 10
7.67948
 20
-1.90944
 30
0.0
 10
7.70382
 20
-2.05595
 30
0.0
 10
7.71884
 20
-2.1461
 30
0.0
 10
7.2731
 20
-2.1908
 30
0.0
 10
7.2731
 20
-2.25325
 30
0.0
 10
7.2731
 20
-2.34615
 30
0.0
 10
7.44196
 20
-2.25087
 30
0.0
 10
7.30648
 20
-2.37269
 30
0.0
 10
7.1802
 20
-2.44309
 30
0.0
 10
7.13798
 20
-2.43241
 30
0.0
 10
7.099
 20
-2.32067
 30
0.0
 10
7.01755
 20
-2.08686
 30
0.0
 10
6.61998
 20
-2.22246
 30
0.0
 10
6.65499
 20
-2.13107
 30
0.0
 10
6.68442
 20
-2.05446
 30
0.0
 10
6.45981
 20
-1.95637
 30
0.0
 10
6.42244
 20
-1.84438
 30
0.0
 10
6.41078
 20
-1.80924
 30
0.0
 10
6.3174
 20
-1.79658
 30
0.0
 10
6.03878
 20
-1.79235
 30
0.0
 10
5.48477
 20
-1.78392
 30
0.0
 10
5.40071
 20
-1.88337
 30
0.0
 10
5.09751
 20
-1.54478
 30
0.0
 10
4.9788
 20
-1.41217
 30
0.0
 10
4.62159
 20
-1.50194
 30
0.0
 10
4.52784
 20
-1.00529
 30
0.0
 10
4.4886
 20
-0.79706
 30
0.0
 10
4.32396
 20
-0.82239
 30
0.0
 10
4.39238
 20
-0.71152
 30
0.0
 10
4.58558
 20
-0.39838
 30
0.0
 10
5.40939
 20
-0.51186
 30
0.0
 10
5.42479
 20
0.03085
 30
0.0
 10
5.43672
 20
0.45213
 30
0.0
 10
5.16977
 20
-0.1282
 30
0.0
 10
4.8837
 20
-0.1282
 30
0.0
 10
4.71446
 20
-0.1282
 30
0.0
 10
4.64531
 20
0.10174
 30
0.0
 10
4.79418
 20
0.16954
 30
0.0
 10
4.88196
 20
0.20952
 30
0.0
 10
5.01556
 20
0.39242
 30
0.0
 10
5.00687
 20
0.45375
 30
0.0
 10
4.98564
 20
0.60299
 30
0.0
 10
4.74389
 20
0.54042
 30
0.0
 10
4.67126
 20
0.4432
 30
0.0
  0
SPLINE
  5
74
330
1F
100
AcDbEntity
  8
Plan 1
 62
   250
370
    20
100
AcDbSpline
210
0.0
220
0.0
230
1.0
 70
    11
 71
     3
 72
   197
 73
   193
 74
     0
 42
0.0000000001
 43
0.0000000001
 40
0.0
 40
0.0
 40
0.0
 40
0.0
 40
0.015625
 40
0.015625
 40
0.015625
 40
0.03125
 40
0.03125
 40
0.03125
 40
0.046875
 40
0.046875
 40
0.046875
 40
0.0625
 40
0.0625
 40
0.0625
 40
0.078125
 40
0.078125
 40
0.078125
 40
0.09375
 40
0.09375
 40
0.09375
 40
0.109375
 40
0.109375
 40
0.109375
 40
0.125
 40
0.125
 40
0.125
 40
0.140625
 40
0.140625
 40
0.140625
 40
0.15625
 40
0.15625
 40
0.15625
 40
0.171875
 40
0.171875
 40
0.171875
 40
0.1875
 40
0.1875
 40
0.1875
 40
0.203125
 40
0.203125
 40
0.203125
 40
0.21875
 40
0.21875
 40
0.21875
 40
0.234375
 40
0.234375
 40
0.234375
 40
0.25
 40
0.25
 40
0.25
 40
0.265625
 40
0.265625
 40
0.265625
 40
0.28125
 40
0.28125
 40
0.28125
 40
0.296875
 40
0.296875
 40
0.296875
 40
0.3125
 40
0.3125
 40
0.3125
 40
0.328125
 40
0.328125
 40
0.328125
 40
0.34375
 40
0.34375
 40
0.34375
 40
0.359375
 40
0.359375
 40
0.359375
 40
0.375
 40
0.375
 40
0.375
 40
0.390625
 40
0.390625
 40
0.390625
 40
0.40625
 40
0.40625
 40
0.40625
 40
0.421875
 40
0.421875
 40
0.421875
 40
0.4375
 40
0.4375
 40
0.4375
 40
0.453125
 40
0.453125
 40
0.453125
 40
0.46875
 40
0.46875
 40
0.46875
 40
0.484375
 40
0.484375
 40
0.484375
 40
0.5
 40
0.5
 40
0.5
 40
0.515625
 40
0.515625
 40
0.515625
 40
0.53125
 40
0.53125
 40
0.53125
 40
0.546875
 40
0.546875
 40
0.546875
 40
0.5625
 40
0.5625
 40
0.5625
 40
0.578125
 40
0.578125
 40
0.578125
 40
0.59375
 40
0.59375
 40
0.59375
 40
0.609375
 40
0.609375
 40
0.609375
 40
0.625
 40
0.625
 40
0.625
 40
0.640625
 40
0.640625
 40
0.640625
 40
0.65625
 40
0.65625
 40
0.65625
 40
0.671875
 40
0.671875
 40
0.671875
 40
0.6875
 40
0.6875
 40
0.6875
 40
0.703125
 40
0.703125
 40
0.703125
 40
0.71875
 40
0.71875
 40
0.71875
 40
0.734375
 40
0.734375
 40
0.734375
 40
0.75
 40
0.75
 40
0.75
 40
0.765625
 40
0.765625
 40
0.765625
 40
0.78125
 40
0.78125
 40
0.78125
 40
0.796875
 40
0.796875
 40
0.796875
 40
0.8125
 40
0.8125
 40
0.8125
 40
0.828125
 40
0.828125
 40
0.828125
 40
0.84375
 40
0.84375
 40
0.84375
 40
0.859375
 40
0.859375
 40
0.859375
 40
0.875
 40
0.875
 40
0.875
 40
0.890625
 40
0.890625
 40
0.890625
 40
0.90625
 40
0.90625
 40
0.90625
 40
0.921875
 40
0.921875
 40
0.921875
 40
0.9375
 40
0.9375
 40
0.9375
 40
0.953125
 40
0.953125
 40
0.953125
 40
0.96875
 40
0.96875
 40
0.96875
 40
0.984375
 40
0.984375
 40
0.984375
 40
1.0
 40
1.0
 40
1.0
 40
1.0
 10
6.49733
 20
4.66311
 30
0.0
 10
6.13676
 20
4.74431
 30
0.0
 10
5.87913
 20
4.75574
 30
0.0
 10
5.53594
 20
4.7057
 30
0.0
 10
5.37005
 20
4.68149
 30
0.0
 10
5.25397
 20
4.67838
 30
0.0
 10
5.23447
 20
4.69763
 30
0.0
 10
5.15848
 20
4.77275
 30
0.0
 10
5.20207
 20
5.84366
 30
0.0
 10
5.29109
 20
6.08751
 30
0.0
 10
5.34584
 20
6.23762
 30
0.0
 10
5.82412
 20
6.59435
 30
0.0
 10
6.0342
 20
6.64165
 30
0.0
 10
6.17648
 20
6.67381
 30
0.0
 10
6.23347
 20
6.70895
 30
0.0
 10
6.32871
 20
6.82318
 30
0.0
 10
6.47684
 20
7.00098
 30
0.0
 10
6.83132
 20
7.36601
 30
0.0
 10
6.95387
 20
7.56331
 30
0.0
 10
7.2089
 20
7.97391
 30
0.0
 10
7.33021
 20
7.65879
 30
0.0
 10
7.58201
 20
8.14278
 30
0.0
 10
8.00045
 20
8.94698
 30
0.0
 10
8.4211
 20
8.47404
 30
0.0
 10
9.02355
 20
8.47404
 30
0.0
 10
9.13069
 20
8.47404
 30
0.0
 10
9.46879
 20
8.81139
 30
0.0
 10
9.80478
 20
8.81139
 30
0.0
 10
10.05795
 20
8.81139
 30
0.0
 10
10.02764
 20
8.53748
 30
0.0
 10
10.22606
 20
8.45455
 30
0.0
 10
10.39566
 20
8.38365
 30
0.0
 10
10.31931
 20
8.30543
 30
0.0
 10
10.37543
 20
8.30543
 30
0.0
 10
10.46619
 20
8.30543
 30
0.0
 10
10.60848
 20
8.76955
 30
0.0
 10
10.23425
 20
8.85795
 30
0.0
 10
10.04006
 20
8.90388
 30
0.0
 10
10.0017
 20
9.09162
 30
0.0
 10
10.33321
 20
9.01203
 30
0.0
 10
10.71414
 20
8.92065
 30
0.0
 10
10.49462
 20
9.12564
 30
0.0
 10
10.81434
 20
8.96361
 30
0.0
 10
11.01734
 20
8.86068
 30
0.0
 10
11.08178
 20
8.85844
 30
0.0
 10
11.2576
 20
8.94821
 30
0.0
 10
11.41428
 20
9.02817
 30
0.0
 10
11.60202
 20
9.0252
 30
0.0
 10
11.61766
 20
8.94238
 30
0.0
 10
11.65554
 20
8.74247
 30
0.0
 10
10.60301
 20
8.93008
 30
0.0
 10
10.93043
 20
8.67257
 30
0.0
 10
11.19042
 20
8.46807
 30
0.0
 10
10.56091
 20
8.27364
 30
0.0
 10
10.80365
 20
8.18051
 30
0.0
 10
10.92049
 20
8.13568
 30
0.0
 10
10.95749
 20
8.39395
 30
0.0
 10
11.06999
 20
8.26966
 30
0.0
 10
11.1379
 20
8.19454
 30
0.0
 10
11.21997
 20
8.23476
 30
0.0
 10
11.21997
 20
8.34316
 30
0.0
 10
11.21997
 20
8.52083
 30
0.0
 10
11.33918
 20
8.24793
 30
0.0
 10
11.52976
 20
8.28976
 30
0.0
 10
11.64635
 20
8.31546
 30
0.0
 10
11.65181
 20
8.27139
 30
0.0
 10
11.55795
 20
8.06441
 30
0.0
 10
11.38611
 20
7.68595
 30
0.0
 10
11.54553
 20
7.34166
 30
0.0
 10
11.73314
 20
7.8162
 30
0.0
 10
11.73314
 20
7.8162
 30
0.0
 10
11.76903
 20
7.73898
 30
0.0
 10
11.76903
 20
7.73898
 30
0.0
 10
11.97614
 20
7.29249
 30
0.0
 10
12.13667
 20
9.33124
 30
0.0
 10
12.15294
 20
7.26455
 30
0.0
 10
12.0402
 20
7.16534
 30
0.0
 10
11.77212
 20
6.9431
 30
0.0
 10
11.74531
 20
6.83619
 30
0.0
 10
11.7124
 20
6.70495
 30
0.0
 10
11.38858
 20
6.30079
 30
0.0
 10
11.38858
 20
6.2032
 30
0.0
 10
11.38858
 20
6.0747
 30
0.0
 10
11.22742
 20
5.8507
 30
0.0
 10
11.10611
 20
5.8106
 30
0.0
 10
10.92744
 20
5.75162
 30
0.0
 10
10.37665
 20
5.19972
 30
0.0
 10
10.37665
 20
5.83581
 30
0.0
 10
10.37665
 20
6.1492
 30
0.0
 10
10.78143
 20
6.42745
 30
0.0
 10
10.78143
 20
6.51039
 30
0.0
 10
10.78143
 20
6.57148
 30
0.0
 10
10.57905
 20
6.74183
 30
0.0
 10
10.57905
 20
6.54714
 30
0.0
 10
10.57905
 20
6.45079
 30
0.0
 10
10.51784
 20
6.34897
 30
0.0
 10
10.45985
 20
6.34897
 30
0.0
 10
10.31881
 20
6.34897
 30
0.0
 10
10.10612
 20
5.88871
 30
0.0
 10
10.02579
 20
5.96904
 30
0.0
 10
9.99463
 20
6.0002
 30
0.0
 10
9.96123
 20
6.51772
 30
0.0
 10
9.82005
 20
6.47264
 30
0.0
 10
9.76777
 20
6.45601
 30
0.0
 10
9.63455
 20
6.24481
 30
0.0
 10
9.63455
 20
6.17875
 30
0.0
 10
9.63455
 20
6.09271
 30
0.0
 10
9.90249
 20
5.7864
 30
0.0
 10
9.90832
 20
5.70905
 30
0.0
 10
9.92893
 20
5.43539
 30
0.0
 10
9.69737
 20
5.21153
 30
0.0
 10
9.31408
 20
5.13467
 30
0.0
 10
8.87913
 20
5.04751
 30
0.0
 10
8.61318
 20
4.66038
 30
0.0
 10
8.48765
 20
5.10637
 30
0.0
 10
8.43277
 20
5.30118
 30
0.0
 10
8.21772
 20
5.33296
 30
0.0
 10
8.21772
 20
5.41839
 30
0.0
 10
8.21772
 20
5.47873
 30
0.0
 10
8.34512
 20
5.57322
 30
0.0
 10
8.42657
 20
5.57322
 30
0.0
 10
8.51298
 20
5.57322
 30
0.0
 10
8.61269
 20
5.7756
 30
0.0
 10
8.67837
 20
5.7756
 30
0.0
 10
8.75448
 20
5.7756
 30
0.0
 10
8.68619
 20
5.87642
 30
0.0
 10
8.59344
 20
5.901
 30
0.0
 10
8.31867
 20
5.97376
 30
0.0
 10
8.20469
 20
5.54789
 30
0.0
 10
8.09679
 20
5.69129
 30
0.0
 10
7.88895
 20
5.96755
 30
0.0
 10
8.27782
 20
6.00977
 30
0.0
 10
8.52838
 20
6.28107
 30
0.0
 10
8.74715
 20
6.51797
 30
0.0
 10
8.68929
 20
6.32614
 30
0.0
 10
8.99809
 20
6.43093
 30
0.0
 10
9.3265
 20
6.54256
 30
0.0
 10
9.69887
 20
6.54393
 30
0.0
 10
9.88747
 20
6.75488
 30
0.0
 10
9.99002
 20
6.86936
 30
0.0
 10
10.68719
 20
7.38624
 30
0.0
 10
10.79422
 20
7.42697
 30
0.0
 10
10.86997
 20
7.45578
 30
0.0
 10
10.91839
 20
7.44957
 30
0.0
 10
11.04156
 20
7.39506
 30
0.0
 10
11.36662
 20
7.25129
 30
0.0
 10
11.58491
 20
7.43443
 30
0.0
 10
11.25177
 20
7.53425
 30
0.0
 10
10.74668
 20
7.68561
 30
0.0
 10
11.32106
 20
7.99402
 30
0.0
 10
11.32106
 20
8.07647
 30
0.0
 10
11.32106
 20
8.12054
 30
0.0
 10
11.1219
 20
8.10664
 30
0.0
 10
11.02356
 20
8.05573
 30
0.0
 10
10.97314
 20
8.02966
 30
0.0
 10
10.82478
 20
7.89308
 30
0.0
 10
10.69391
 20
7.75216
 30
0.0
 10
10.26394
 20
7.28927
 30
0.0
 10
10.47601
 20
7.68523
 30
0.0
 10
10.08874
 20
7.29101
 30
0.0
 10
9.85482
 20
7.05286
 30
0.0
 10
9.7756
 20
7.00618
 30
0.0
 10
9.45489
 20
6.91728
 30
0.0
 10
9.16558
 20
6.83707
 30
0.0
 10
9.12486
 20
6.86239
 30
0.0
 10
9.10214
 20
7.1368
 30
0.0
 10
9.06501
 20
7.58416
 30
0.0
 10
9.64796
 20
7.27823
 30
0.0
 10
9.79049
 20
7.6193
 30
0.0
 10
9.93229
 20
7.95876
 30
0.0
 10
9.71636
 20
7.80691
 30
0.0
 10
9.61381
 20
7.78506
 30
0.0
 10
9.41651
 20
7.74297
 30
0.0
 10
9.29471
 20
7.4189
 30
0.0
 10
9.16956
 20
7.572
 30
0.0
 10
9.12162
 20
7.63061
 30
0.0
 10
9.21673
 20
7.85857
 30
0.0
 10
9.30004
 20
7.88501
 30
0.0
 10
9.46978
 20
7.9389
 30
0.0
 10
9.25261
 20
8.10056
 30
0.0
 10
9.02639
 20
7.87434
 30
0.0
 10
8.72096
 20
7.56877
 30
0.0
 10
8.86895
 20
6.68908
 30
0.0
 10
8.50752
 20
6.68535
 30
0.0
 10
8.29122
 20
6.68312
 30
0.0
 10
8.25571
 20
6.47155
 30
0.0
 10
8.02552
 20
6.35844
 30
0.0
 10
7.52812
 20
6.11409
 30
0.0
 10
7.44952
 20
5.43566
 30
0.0
 10
7.82959
 20
5.06727
 30
0.0
 10
8.35319
 20
4.55969
 30
0.0
 10
6.72964
 20
4.61084
 30
0.0
 10
6.49733
 20
4.66311
 30
0.0
  0
SPLINE
  5
75
330
1F
100
AcDbEntity
  8
Plan 1
 62
   250
370
    20
100
AcDbSpline
210
0.0
220
0.0
230
1.0
 70
    11
 71
     3
 72
   161
 73
   157
 74
     0
 42
0.0000000001
 43
0.0000000001
 40
0.0
 40
0.0
 40
0.0
 40
0.0
 40
0.0192307692307692
 40
0.0192307692307692
 40
0.0192307692307692
 40
0.0384615384615385
 40
0.0384615384615385
 40
0.0384615384615385
 40
0.0576923076923077
 40
0.0576923076923077
 40
0.0576923076923077
 40
0.0769230769230769
 40
0.0769230769230769
 40
0.0769230769230769
 40
0.0961538461538462
 40
0.0961538461538462
 40
0.0961538461538462
 40
0.1153846153846154
 40
0.1153846153846154
 40
0.1153846153846154
 40
0.1346153846153846
 40
0.1346153846153846
 40
0.1346153846153846
 40
0.1538461538461539
 40
0.1538461538461539
 40
0.1538461538461539
 40
0.1730769230769231
 40
0.1730769230769231
 40
0.1730769230769231
 40
0.1923076923076923
 40
0.1923076923076923
 40
0.1923076923076923
 40
0.2115384615384616
 40
0.2115384615384616
 40
0.2115384615384616
 40
0.2307692307692308
 40
0.2307692307692308
 40
0.2307692307692308
 40
0.25
 40
0.25
 40
0.25
 40
0.2692307692307693
 40
0.2692307692307693
 40
0.2692307692307693
 40
0.2884615384615385
 40
0.2884615384615385
 40
0.2884615384615385
 40
0.3076923076923077
 40
0.3076923076923077
 40
0.3076923076923077
 40
0.3269230769230769
 40
0.3269230769230769
 40
0.3269230769230769
 40
0.3461538461538461
 40
0.3461538461538461
 40
0.3461538461538461
 40
0.3653846153846154
 40
0.3653846153846154
 40
0.3653846153846154
 40
0.3846153846153846
 40
0.3846153846153846
 40
0.3846153846153846
 40
0.4038461538461539
 40
0.4038461538461539
 40
0.4038461538461539
 40
0.4230769230769231
 40
0.4230769230769231
 40
0.4230769230769231
 40
0.4423076923076923
 40
0.4423076923076923
 40
0.4423076923076923
 40
0.4615384615384616
 40
0.4615384615384616
 40
0.4615384615384616
 40
0.4807692307692308
 40
0.4807692307692308
 40
0.4807692307692308
 40
0.5
 40
0.5
 40
0.5
 40
0.5192307692307693
 40
0.5192307692307693
 40
0.5192307692307693
 40
0.5384615384615385
 40
0.5384615384615385
 40
0.5384615384615385
 40
0.5576923076923077
 40
0.5576923076923077
 40
0.5576923076923077
 40
0.576923076923077
 40
0.576923076923077
 40
0.576923076923077
 40
0.5961538461538461
 40
0.5961538461538461
 40
0.5961538461538461
 40
0.6153846153846154
 40
0.6153846153846154
 40
0.6153846153846154
 40
0.6346153846153847
 40
0.6346153846153847
 40
0.6346153846153847
 40
0.6538461538461539
 40
0.6538461538461539
 40
0.6538461538461539
 40
0.6730769230769231
 40
0.6730769230769231
 40
0.6730769230769231
 40
0.6923076923076923
 40
0.6923076923076923
 40
0.6923076923076923
 40
0.7115384615384616
 40
0.7115384615384616
 40
0.7115384615384616
 40
0.7307692307692308
 40
0.7307692307692308
 40
0.7307692307692308
 40
0.75
 40
0.75
 40
0.75
 40
0.7692307692307693
 40
0.7692307692307693
 40
0.7692307692307693
 40
0.7884615384615385
 40
0.7884615384615385
 40
0.7884615384615385
 40
0.8076923076923077
 40
0.8076923076923077
 40
0.8076923076923077
 40
0.826923076923077
 40
0.826923076923077
 40
0.826923076923077
 40
0.8461538461538463
 40
0.8461538461538463
 40
0.8461538461538463
 40
0.8653846153846154
 40
0.8653846153846154
 40
0.8653846153846154
 40
0.8846153846153847
 40
0.8846153846153847
 40
0.8846153846153847
 40
0.9038461538461539
 40
0.9038461538461539
 40
0.9038461538461539
 40
0.9230769230769231
 40
0.9230769230769231
 40
0.9230769230769231
 40
0.9423076923076924
 40
0.9423076923076924
 40
0.9423076923076924
 40
0.9615384615384616
 40
0.9615384615384616
 40
0.9615384615384616
 40
0.9807692307692308
 40
0.9807692307692308
 40
0.9807692307692308
 40
1.0
 40
1.0
 40
1.0
 40
1.0
 10
6.91921
 20
8.57061
 30
0.0
 10
6.93796
 20
8.85793
 30
0.0
 10
7.20553
 20
9.37233
 30
0.0
 10
7.20553
 20
9.40561
 30
0.0
 10
7.20553
 20
9.47688
 30
0.0
 10
7.81132
 20
10.0561
 30
0.0
 10
7.39078
 20
9.97726
 30
0.0
 10
7.0507
 20
9.91345
 30
0.0
 10
7.16157
 20
9.59236
 30
0.0
 10
7.06113
 20
9.40164
 30
0.0
 10
6.9911
 20
9.26853
 30
0.0
 10
6.78573
 20
9.01376
 30
0.0
 10
6.74849
 20
9.01376
 30
0.0
 10
6.70343
 20
9.01376
 30
0.0
 10
6.63215
 20
9.15853
 30
0.0
 10
6.63215
 20
9.24992
 30
0.0
 10
6.63215
 20
9.6429
 30
0.0
 10
6.06982
 20
9.56914
 30
0.0
 10
6.20888
 20
9.45367
 30
0.0
 10
6.29803
 20
9.37955
 30
0.0
 10
6.20466
 20
9.2827
 30
0.0
 10
6.36222
 20
9.13184
 30
0.0
 10
6.48402
 20
9.01514
 30
0.0
 10
6.68418
 20
8.40661
 30
0.0
 10
6.52972
 20
8.40661
 30
0.0
 10
6.35689
 20
8.40661
 30
0.0
 10
6.36334
 20
8.96722
 30
0.0
 10
5.86148
 20
8.63843
 30
0.0
 10
6.18232
 20
8.30369
 30
0.0
 10
6.18517
 20
8.39159
 30
0.0
 10
6.34075
 20
8.26929
 30
0.0
 10
6.62981
 20
8.04195
 30
0.0
 10
6.25434
 20
7.56678
 30
0.0
 10
6.01818
 20
7.48806
 30
0.0
 10
5.95983
 20
7.46868
 30
0.0
 10
6.08611
 20
7.34354
 30
0.0
 10
6.05171
 20
7.30914
 30
0.0
 10
6.01557
 20
7.27313
 30
0.0
 10
5.77433
 20
7.2555
 30
0.0
 10
5.72975
 20
7.2858
 30
0.0
 10
5.72975
 20
7.2858
 30
0.0
 10
5.72949
 20
7.28539
 30
0.0
 10
5.72949
 20
7.28539
 30
0.0
 10
5.69112
 20
7.31147
 30
0.0
 10
5.68343
 20
8.06067
 30
0.0
 10
5.47806
 20
8.57383
 30
0.0
 10
5.58385
 20
8.69416
 30
0.0
 10
5.74563
 20
8.88586
 30
0.0
 10
5.85899
 20
8.95787
 30
0.0
 10
6.05405
 20
9.08191
 30
0.0
 10
5.95733
 20
9.28219
 30
0.0
 10
5.40728
 20
8.80602
 30
0.0
 10
5.23495
 20
8.97811
 30
0.0
 10
5.23321
 20
8.93689
 30
0.0
 10
5.22066
 20
9.34315
 30
0.0
 10
5.1664
 20
11.10215
 30
0.0
 10
6.54585
 20
9.477
 30
0.0
 10
6.96887
 20
10.62637
 30
0.0
 10
7.09304
 20
10.96359
 30
0.0
 10
7.31677
 20
10.97577
 30
0.0
 10
7.1941
 20
11.02307
 30
0.0
 10
7.00711
 20
11.09508
 30
0.0
 10
6.82707
 20
10.56578
 30
0.0
 10
6.64741
 20
10.52729
 30
0.0
 10
6.2265
 20
10.43702
 30
0.0
 10
5.83749
 20
10.59422
 30
0.0
 10
6.02126
 20
10.78021
 30
0.0
 10
6.02126
 20
10.78021
 30
0.0
 10
6.64344
 20
11.44634
 30
0.0
 10
6.64344
 20
11.44634
 30
0.0
 10
6.80722
 20
11.46347
 30
0.0
 10
7.09502
 20
11.43206
 30
0.0
 10
7.28499
 20
11.52494
 30
0.0
 10
7.46502
 20
11.61297
 30
0.0
 10
7.62346
 20
11.88091
 30
0.0
 10
7.49544
 20
11.88091
 30
0.0
 10
7.40295
 20
11.88091
 30
0.0
 10
7.26239
 20
11.58677
 30
0.0
 10
6.93746
 20
11.69467
 30
0.0
 10
6.67747
 20
11.78096
 30
0.0
 10
6.69435
 20
11.79338
 30
0.0
 10
6.7167
 20
12.11298
 30
0.0
 10
6.76276
 20
12.77216
 30
0.0
 10
6.39561
 20
12.07958
 30
0.0
 10
6.39561
 20
11.8171
 30
0.0
 10
6.39561
 20
11.44237
 30
0.0
 10
5.78573
 20
11.10155
 30
0.0
 10
5.78871
 20
11.6414
 30
0.0
 10
5.78907
 20
11.69816
 30
0.0
 10
5.99394
 20
11.93257
 30
0.0
 10
6.0636
 20
11.95579
 30
0.0
 10
6.12543
 20
11.97639
 30
0.0
 10
6.06955
 20
12.0833
 30
0.0
 10
5.99692
 20
12.0833
 30
0.0
 10
5.90702
 20
12.0833
 30
0.0
 10
5.66614
 20
11.88092
 30
0.0
 10
5.63697
 20
11.88092
 30
0.0
 10
5.61413
 20
11.88092
 30
0.0
 10
5.46104
 20
12.69505
 30
0.0
 10
5.67695
 20
12.47914
 30
0.0
 10
5.77205
 20
12.38391
 30
0.0
 10
5.5395
 20
12.27514
 30
0.0
 10
5.70923
 20
12.24273
 30
0.0
 10
6.06309
 20
12.17506
 30
0.0
 10
5.86034
 20
12.79166
 30
0.0
 10
6.23593
 20
12.79166
 30
0.0
 10
6.57937
 20
12.79166
 30
0.0
 10
5.7574
 20
12.30332
 30
0.0
 10
6.08358
 20
12.28184
 30
0.0
 10
6.50388
 20
12.25427
 30
0.0
 10
6.57689
 20
12.65681
 30
0.0
 10
6.67622
 20
12.65681
 30
0.0
 10
6.77531
 20
12.65681
 30
0.0
 10
7.14866
 20
12.2847
 30
0.0
 10
6.90145
 20
12.14402
 30
0.0
 10
6.54311
 20
11.94015
 30
0.0
 10
7.34831
 20
11.59945
 30
0.0
 10
7.57429
 20
12.1958
 30
0.0
 10
7.69211
 20
12.50683
 30
0.0
 10
7.74178
 20
11.86739
 30
0.0
 10
7.6006
 20
11.6655
 30
0.0
 10
7.46577
 20
11.47255
 30
0.0
 10
7.47222
 20
11.1234
 30
0.0
 10
7.67759
 20
11.36937
 30
0.0
 10
7.79306
 20
11.50769
 30
0.0
 10
7.81255
 20
11.52222
 30
0.0
 10
7.81255
 20
11.33014
 30
0.0
 10
7.81255
 20
11.10602
 30
0.0
 10
7.85862
 20
11.20746
 30
0.0
 10
7.8652
 20
11.01774
 30
0.0
 10
7.87315
 20
10.78692
 30
0.0
 10
7.99595
 20
10.78828
 30
0.0
 10
8.12756
 20
11.02072
 30
0.0
 10
8.33652
 20
11.3896
 30
0.0
 10
8.68591
 20
11.23961
 30
0.0
 10
8.40295
 20
11.01388
 30
0.0
 10
8.2105
 20
10.86029
 30
0.0
 10
8.27072
 20
10.774
 30
0.0
 10
8.49098
 20
10.88786
 30
0.0
 10
8.92928
 20
11.11457
 30
0.0
 10
8.94927
 20
11.69106
 30
0.0
 10
8.98652
 20
11.31932
 30
0.0
 10
9.00352
 20
11.15021
 30
0.0
 10
8.71572
 20
10.7617
 30
0.0
 10
8.60348
 20
10.6461
 30
0.0
 10
8.12731
 20
10.15616
 30
0.0
 10
8.43101
 20
9.94236
 30
0.0
 10
8.08013
 20
9.57036
 30
0.0
 10
7.89599
 20
9.37506
 30
0.0
 10
7.98142
 20
9.28306
 30
0.0
 10
7.69634
 20
9.10066
 30
0.0
 10
7.49334
 20
8.97079
 30
0.0
 10
7.43573
 20
8.8989
 30
0.0
 10
7.35787
 20
8.67814
 30
0.0
 10
7.20901
 20
8.25622
 30
0.0
 10
6.8832
 20
8.01859
 30
0.0
 10
6.91921
 20
8.57061
 30
0.0
  0
SPLINE
  5
76
330
1F
100
AcDbEntity
  8
Plan 1
 62
   250
370
    20
100
AcDbSpline
210
0.0
220
0.0
230
1.0
 70
    11
 71
     3
 72
    17
 73
    13
 74
     0
 42
0.0000000001
 43
0.0000000001
 40
0.0
 40
0.0
 40
0.0
 40
0.0
 40
0.25
 40
0.25
 40
0.25
 40
0.5
 40
0.5
 40
0.5
 40
0.75
 40
0.75
 40
0.75
 40
1.0
 40
1.0
 40
1.0
 40
1.0
 10
8.04899
 20
11.33388
 30
0.0
 10
8.04899
 20
11.43556
 30
0.0
 10
8.05644
 20
11.58865
 30
0.0
 10
7.99945
 20
11.66402
 30
0.0
 10
7.78614
 20
11.94611
 30
0.0
 10
8.3188
 20
11.90378
 30
0.0
 10
8.3188
 20
11.83176
 30
0.0
 10
8.3188
 20
11.74684
 30
0.0
 10
8.48741
 20
11.74051
 30
0.0
 10
8.48741
 20
11.60902
 30
0.0
 10
8.48741
 20
11.52897
 30
0.0
 10
8.14866
 20
11.39932
 30
0.0
 10
8.04899
 20
11.33388
 30
0.0
  0
SPLINE
  5
77
330
1F
100
AcDbEntity
  8
Plan 1
 62
   250
370
    20
100
AcDbSpline
210
0.0
220
0.0
230
1.0
 70
    11
 71
     3
 72
   173
 73
   169
 74
     0
 42
0.0000000001
 43
0.0000000001
 40
0.0
 40
0.0
 40
0.0
 40
0.0
 40
0.0178571428571429
 40
0.0178571428571429
 40
0.0178571428571429
 40
0.0357142857142857
 40
0.0357142857142857
 40
0.0357142857142857
 40
0.0535714285714286
 40
0.0535714285714286
 40
0.0535714285714286
 40
0.0714285714285714
 40
0.0714285714285714
 40
0.0714285714285714
 40
0.0892857142857143
 40
0.0892857142857143
 40
0.0892857142857143
 40
0.1071428571428571
 40
0.1071428571428571
 40
0.1071428571428571
 40
0.125
 40
0.125
 40
0.125
 40
0.1428571428571428
 40
0.1428571428571428
 40
0.1428571428571428
 40
0.1607142857142857
 40
0.1607142857142857
 40
0.1607142857142857
 40
0.1785714285714285
 40
0.1785714285714285
 40
0.1785714285714285
 40
0.1964285714285714
 40
0.1964285714285714
 40
0.1964285714285714
 40
0.2142857142857143
 40
0.2142857142857143
 40
0.2142857142857143
 40
0.2321428571428571
 40
0.2321428571428571
 40
0.2321428571428571
 40
0.25
 40
0.25
 40
0.25
 40
0.2678571428571428
 40
0.2678571428571428
 40
0.2678571428571428
 40
0.2857142857142857
 40
0.2857142857142857
 40
0.2857142857142857
 40
0.3035714285714285
 40
0.3035714285714285
 40
0.3035714285714285
 40
0.3214285714285714
 40
0.3214285714285714
 40
0.3214285714285714
 40
0.3392857142857142
 40
0.3392857142857142
 40
0.3392857142857142
 40
0.3571428571428571
 40
0.3571428571428571
 40
0.3571428571428571
 40
0.375
 40
0.375
 40
0.375
 40
0.3928571428571428
 40
0.3928571428571428
 40
0.3928571428571428
 40
0.4107142857142857
 40
0.4107142857142857
 40
0.4107142857142857
 40
0.4285714285714285
 40
0.4285714285714285
 40
0.4285714285714285
 40
0.4464285714285714
 40
0.4464285714285714
 40
0.4464285714285714
 40
0.4642857142857142
 40
0.4642857142857142
 40
0.4642857142857142
 40
0.4821428571428571
 40
0.4821428571428571
 40
0.4821428571428571
 40
0.5
 40
0.5
 40
0.5
 40
0.5178571428571428
 40
0.5178571428571428
 40
0.5178571428571428
 40
0.5357142857142857
 40
0.5357142857142857
 40
0.5357142857142857
 40
0.5535714285714285
 40
0.5535714285714285
 40
0.5535714285714285
 40
0.5714285714285714
 40
0.5714285714285714
 40
0.5714285714285714
 40
0.5892857142857143
 40
0.5892857142857143
 40
0.5892857142857143
 40
0.6071428571428571
 40
0.6071428571428571
 40
0.6071428571428571
 40
0.625
 40
0.625
 40
0.625
 40
0.6428571428571428
 40
0.6428571428571428
 40
0.6428571428571428
 40
0.6607142857142857
 40
0.6607142857142857
 40
0.6607142857142857
 40
0.6785714285714285
 40
0.6785714285714285
 40
0.6785714285714285
 40
0.6964285714285714
 40
0.6964285714285714
 40
0.6964285714285714
 40
0.7142857142857142
 40
0.7142857142857142
 40
0.7142857142857142
 40
0.7321428571428571
 40
0.7321428571428571
 40
0.7321428571428571
 40
0.75
 40
0.75
 40
0.75
 40
0.7678571428571428
 40
0.7678571428571428
 40
0.7678571428571428
 40
0.7857142857142857
 40
0.7857142857142857
 40
0.7857142857142857
 40
0.8035714285714285
 40
0.8035714285714285
 40
0.8035714285714285
 40
0.8214285714285714
 40
0.8214285714285714
 40
0.8214285714285714
 40
0.8392857142857142
 40
0.8392857142857142
 40
0.8392857142857142
 40
0.8571428571428571
 40
0.8571428571428571
 40
0.8571428571428571
 40
0.875
 40
0.875
 40
0.875
 40
0.8928571428571428
 40
0.8928571428571428
 40
0.8928571428571428
 40
0.9107142857142857
 40
0.9107142857142857
 40
0.9107142857142857
 40
0.9285714285714285
 40
0.9285714285714285
 40
0.9285714285714285
 40
0.9464285714285714
 40
0.9464285714285714
 40
0.9464285714285714
 40
0.9642857142857142
 40
0.9642857142857142
 40
0.9642857142857142
 40
0.9821428571428571
 40
0.9821428571428571
 40
0.9821428571428571
 40
1.0
 40
1.0
 40
1.0
 40
1.0
 10
4.49
 20
6.14747
 30
0.0
 10
4.48987
 20
5.74022
 30
0.0
 10
4.31108
 20
5.38064
 30
0.0
 10
4.17152
 20
5.80366
 30
0.0
 10
4.04065
 20
6.20024
 30
0.0
 10
3.66804
 20
5.88722
 30
0.0
 10
3.93189
 20
5.58675
 30
0.0
 10
4.21274
 20
5.26691
 30
0.0
 10
3.94343
 20
4.48319
 30
0.0
 10
3.58323
 20
4.76654
 30
0.0
 10
3.58323
 20
4.76654
 30
0.0
 10
3.58353
 20
4.76652
 30
0.0
 10
3.58353
 20
4.76652
 30
0.0
 10
3.46768
 20
4.85766
 30
0.0
 10
3.41802
 20
4.95824
 30
0.0
 10
3.33061
 20
5.27833
 30
0.0
 10
3.0325
 20
6.37109
 30
0.0
 10
3.60488
 20
6.11829
 30
0.0
 10
4.00121
 20
6.61866
 30
0.0
 10
4.1872
 20
6.85346
 30
0.0
 10
4.48159
 20
6.87642
 30
0.0
 10
4.5017
 20
7.01846
 30
0.0
 10
4.52418
 20
7.17727
 30
0.0
 10
4.36326
 20
6.9971
 30
0.0
 10
4.27448
 20
7.10401
 30
0.0
 10
4.14994
 20
7.25399
 30
0.0
 10
4.72668
 20
7.69825
 30
0.0
 10
4.47364
 20
7.69825
 30
0.0
 10
4.29423
 20
7.69825
 30
0.0
 10
4.63592
 20
8.09817
 30
0.0
 10
4.4174
 20
8.27014
 30
0.0
 10
4.2617
 20
8.39257
 30
0.0
 10
4.26245
 20
8.39431
 30
0.0
 10
4.21154
 20
7.81509
 30
0.0
 10
4.17318
 20
7.37915
 30
0.0
 10
4.00233
 20
7.37108
 30
0.0
 10
3.9513
 20
7.07545
 30
0.0
 10
3.88499
 20
6.69066
 30
0.0
 10
3.04329
 20
6.47264
 30
0.0
 10
3.44844
 20
6.95414
 30
0.0
 10
3.59358
 20
7.12661
 30
0.0
 10
3.56937
 20
7.51697
 30
0.0
 10
3.70284
 20
7.69763
 30
0.0
 10
3.86586
 20
7.91802
 30
0.0
 10
3.68993
 20
8.16361
 30
0.0
 10
3.8758
 20
8.47464
 30
0.0
 10
4.1204
 20
8.88363
 30
0.0
 10
4.26381
 20
9.47651
 30
0.0
 10
4.12562
 20
9.52952
 30
0.0
 10
4.02405
 20
9.56851
 30
0.0
 10
3.96768
 20
8.97998
 30
0.0
 10
3.78368
 20
8.97998
 30
0.0
 10
3.71129
 20
8.97998
 30
0.0
 10
3.62251
 20
9.92944
 30
0.0
 10
3.22358
 20
10.21601
 30
0.0
 10
2.82402
 20
10.50308
 30
0.0
 10
3.14821
 20
10.59744
 30
0.0
 10
3.10563
 20
11.14165
 30
0.0
 10
3.04007
 20
11.97925
 30
0.0
 10
2.93776
 20
10.88139
 30
0.0
 10
2.85097
 20
10.77772
 30
0.0
 10
2.70446
 20
10.60265
 30
0.0
 10
2.77274
 20
10.39841
 30
0.0
 10
2.48084
 20
10.67044
 30
0.0
 10
2.39889
 20
10.7468
 30
0.0
 10
2.29211
 20
10.82342
 30
0.0
 10
2.24369
 20
10.84079
 30
0.0
 10
2.03348
 20
10.91591
 30
0.0
 10
1.95278
 20
11.42647
 30
0.0
 10
2.20607
 20
11.56888
 30
0.0
 10
2.40063
 20
11.67815
 30
0.0
 10
2.40845
 20
11.76593
 30
0.0
 10
2.59035
 20
11.81485
 30
0.0
 10
2.78006
 20
11.86588
 30
0.0
 10
2.80018
 20
12.01574
 30
0.0
 10
2.87555
 20
12.01574
 30
0.0
 10
3.03472
 20
12.01574
 30
0.0
 10
2.70992
 20
12.44013
 30
0.0
 10
2.43204
 20
12.02022
 30
0.0
 10
2.26739
 20
11.77141
 30
0.0
 10
1.89578
 20
11.69741
 30
0.0
 10
2.23449
 20
12.08889
 30
0.0
 10
2.45251
 20
12.34094
 30
0.0
 10
2.47921
 20
12.42053
 30
0.0
 10
2.47921
 20
12.81859
 30
0.0
 10
2.47921
 20
13.01502
 30
0.0
 10
2.55744
 20
13.33673
 30
0.0
 10
2.40757
 20
13.27924
 30
0.0
 10
2.20158
 20
13.20028
 30
0.0
 10
2.37628
 20
11.65954
 30
0.0
 10
1.80885
 20
12.26881
 30
0.0
 10
1.72976
 20
12.35373
 30
0.0
 10
1.7248
 20
12.38005
 30
0.0
 10
1.72976
 20
12.69357
 30
0.0
 10
1.74056
 20
13.38329
 30
0.0
 10
1.64235
 20
12.79203
 30
0.0
 10
1.50912
 20
12.70971
 30
0.0
 10
1.44493
 20
12.67009
 30
0.0
 10
1.21697
 20
12.81722
 30
0.0
 10
1.09007
 20
12.98
 30
0.0
 10
0.75818
 20
13.40601
 30
0.0
 10
1.30537
 20
13.11994
 30
0.0
 10
1.34858
 20
12.96871
 30
0.0
 10
1.45474
 20
12.59758
 30
0.0
 10
1.52252
 20
13.33138
 30
0.0
 10
1.63924
 20
13.33138
 30
0.0
 10
1.8348
 20
13.33138
 30
0.0
 10
1.78712
 20
12.89942
 30
0.0
 10
2.00701
 20
12.67953
 30
0.0
 10
2.06102
 20
12.92376
 30
0.0
 10
2.22417
 20
13.25031
 30
0.0
 10
2.07778
 20
13.38279
 30
0.0
 10
1.9237
 20
13.52222
 30
0.0
 10
2.15986
 20
13.48696
 30
0.0
 10
2.34387
 20
13.47094
 30
0.0
 10
2.67799
 20
13.44177
 30
0.0
 10
2.71946
 20
13.40551
 30
0.0
 10
2.71946
 20
13.14142
 30
0.0
 10
2.71946
 20
12.85485
 30
0.0
 10
2.83108
 20
12.86602
 30
0.0
 10
2.95996
 20
13.16551
 30
0.0
 10
3.04688
 20
13.3679
 30
0.0
 10
3.10647
 20
13.42042
 30
0.0
 10
3.27595
 20
13.44451
 30
0.0
 10
4.06985
 20
13.5575
 30
0.0
 10
4.60152
 20
13.58196
 30
0.0
 10
4.21512
 20
12.60616
 30
0.0
 10
3.99375
 20
12.61089
 30
0.0
 10
3.81494
 20
12.5863
 30
0.0
 10
3.9
 20
12.79167
 30
0.0
 10
3.95985
 20
12.93594
 30
0.0
 10
3.90558
 20
12.98411
 30
0.0
 10
3.78776
 20
12.89137
 30
0.0
 10
3.59134
 20
12.7369
 30
0.0
 10
3.50852
 20
12.92303
 30
0.0
 10
3.54887
 20
13.17433
 30
0.0
 10
3.60772
 20
13.54048
 30
0.0
 10
2.9735
 20
12.95282
 30
0.0
 10
3.61604
 20
12.53092
 30
0.0
 10
4.08637
 20
12.22212
 30
0.0
 10
4.06278
 20
11.75565
 30
0.0
 10
3.72965
 20
12.03426
 30
0.0
 10
3.50876
 20
12.21902
 30
0.0
 10
3.26305
 20
12.2122
 30
0.0
 10
3.15987
 20
12.43333
 30
0.0
 10
3.01099
 20
12.75243
 30
0.0
 10
2.74355
 20
13.01577
 30
0.0
 10
2.90757
 20
12.45207
 30
0.0
 10
3.06724
 20
11.90364
 30
0.0
 10
3.52887
 20
11.92972
 30
0.0
 10
3.52887
 20
11.81611
 30
0.0
 10
3.52887
 20
11.683
 30
0.0
 10
3.67675
 20
11.61559
 30
0.0
 10
3.64249
 20
11.32381
 30
0.0
 10
3.62386
 20
11.16525
 30
0.0
 10
3.63392
 20
11.12863
 30
0.0
 10
3.75994
 20
10.89905
 30
0.0
 10
4.09095
 20
10.29587
 30
0.0
 10
3.74665
 20
10.23888
 30
0.0
 10
4.25932
 20
9.6496
 30
0.0
 10
4.73721
 20
9.10018
 30
0.0
 10
4.50553
 20
9.01774
 30
0.0
 10
4.76416
 20
8.48781
 30
0.0
 10
4.88
 20
8.25041
 30
0.0
 10
4.881
 20
8.24445
 30
0.0
 10
4.88795
 20
7.74519
 30
0.0
 10
4.90297
 20
6.66995
 30
0.0
 10
4.49025
 20
6.95813
 30
0.0
 10
4.49
 20
6.14747
 30
0.0
  0
SPLINE
  5
78
330
1F
100
AcDbEntity
  8
Plan 1
 62
   250
370
    20
100
AcDbSpline
210
0.0
220
0.0
230
1.0
 70
    11
 71
     3
 72
    65
 73
    61
 74
     0
 42
0.0000000001
 43
0.0000000001
 40
0.0
 40
0.0
 40
0.0
 40
0.0
 40
0.05
 40
0.05
 40
0.05
 40
0.1
 40
0.1
 40
0.1
 40
0.15
 40
0.15
 40
0.15
 40
0.2
 40
0.2
 40
0.2
 40
0.25
 40
0.25
 40
0.25
 40
0.3
 40
0.3
 40
0.3
 40
0.35
 40
0.35
 40
0.35
 40
0.4
 40
0.4
 40
0.4
 40
0.45
 40
0.45
 40
0.45
 40
0.5
 40
0.5
 40
0.5
 40
0.55
 40
0.55
 40
0.55
 40
0.6000000000000001
 40
0.6000000000000001
 40
0.6000000000000001
 40
0.65
 40
0.65
 40
0.65
 40
0.7000000000000001
 40
0.7000000000000001
 40
0.7000000000000001
 40
0.75
 40
0.75
 40
0.75
 40
0.8
 40
0.8
 40
0.8
 40
0.8500000000000001
 40
0.8500000000000001
 40
0.8500000000000001
 40
0.9
 40
0.9
 40
0.9
 40
0.9500000000000001
 40
0.9500000000000001
 40
0.9500000000000001
 40
1.0
 40
1.0
 40
1.0
 40
1.0
 10
4.70938
 20
10.05313
 30
0.0
 10
4.70938
 20
9.92177
 30
0.0
 10
4.63476
 20
9.93195
 30
0.0
 10
4.51271
 20
10.07984
 30
0.0
 10
4.25433
 20
10.39335
 30
0.0
 10
4.3446
 20
11.24511
 30
0.0
 10
4.57604
 20
11.21109
 30
0.0
 10
4.65488
 20
11.19954
 30
0.0
 10
4.98925
 20
11.19135
 30
0.0
 10
5.03593
 20
11.16242
 30
0.0
 10
5.11912
 20
11.11101
 30
0.0
 10
5.21348
 20
11.53639
 30
0.0
 10
4.63488
 20
11.5133
 30
0.0
 10
4.68977
 20
11.84979
 30
0.0
 10
4.73372
 20
12.06209
 30
0.0
 10
4.63054
 20
12.16528
 30
0.0
 10
4.4788
 20
12.31701
 30
0.0
 10
4.2943
 20
12.23655
 30
0.0
 10
4.40704
 20
12.1669
 30
0.0
 10
4.47596
 20
12.12431
 30
0.0
 10
4.32385
 20
11.96973
 30
0.0
 10
4.45646
 20
11.76747
 30
0.0
 10
4.50353
 20
11.69569
 30
0.0
 10
4.50216
 20
11.68179
 30
0.0
 10
4.44032
 20
11.6032
 30
0.0
 10
4.3153
 20
11.44427
 30
0.0
 10
4.31665
 20
11.00573
 30
0.0
 10
4.18132
 20
11.19085
 30
0.0
 10
4.11414
 20
11.28286
 30
0.0
 10
4.12544
 20
11.61698
 30
0.0
 10
4.20329
 20
11.83861
 30
0.0
 10
4.33789
 20
12.2214
 30
0.0
 10
4.17908
 20
12.17422
 30
0.0
 10
4.41412
 20
12.50374
 30
0.0
 10
4.61576
 20
12.78634
 30
0.0
 10
4.79381
 20
13.49034
 30
0.0
 10
4.84583
 20
13.06173
 30
0.0
 10
4.88383
 20
12.74896
 30
0.0
 10
5.02835
 20
12.80248
 30
0.0
 10
4.86954
 20
12.68576
 30
0.0
 10
4.67685
 20
12.54408
 30
0.0
 10
4.82435
 20
12.50832
 30
0.0
 10
5.08038
 20
12.6346
 30
0.0
 10
5.23198
 20
12.70935
 30
0.0
 10
5.23223
 20
12.70972
 30
0.0
 10
5.23074
 20
12.88665
 30
0.0
 10
5.22926
 20
13.06123
 30
0.0
 10
5.22987
 20
13.06247
 30
0.0
 10
5.27793
 20
12.97084
 30
0.0
 10
5.45461
 20
12.63373
 30
0.0
 10
5.25061
 20
12.10816
 30
0.0
 10
5.27929
 20
11.93159
 30
0.0
 10
5.27929
 20
11.93159
 30
0.0
 10
5.67077
 20
11.17445
 30
0.0
 10
5.67077
 20
11.17445
 30
0.0
 10
5.51955
 20
11.03514
 30
0.0
 10
5.38409
 20
10.94686
 30
0.0
 10
5.38409
 20
10.79315
 30
0.0
 10
5.38409
 20
10.44834
 30
0.0
 10
4.70938
 20
10.33101
 30
0.0
 10
4.70938
 20
10.05313
 30
0.0
  0
SPLINE
  5
79
330
1F
100
AcDbEntity
  8
Plan 1
 62
   250
370
    20
100
AcDbSpline
210
0.0
220
0.0
230
1.0
 70
    11
 71
     3
 72
    26
 73
    22
 74
     0
 42
0.0000000001
 43
0.0000000001
 40
0.0
 40
0.0
 40
0.0
 40
0.0
 40
0.1428571428571428
 40
0.1428571428571428
 40
0.1428571428571428
 40
0.2857142857142857
 40
0.2857142857142857
 40
0.2857142857142857
 40
0.4285714285714285
 40
0.4285714285714285
 40
0.4285714285714285
 40
0.5714285714285714
 40
0.5714285714285714
 40
0.5714285714285714
 40
0.7142857142857142
 40
0.7142857142857142
 40
0.7142857142857142
 40
0.8571428571428571
 40
0.8571428571428571
 40
0.8571428571428571
 40
1.0
 40
1.0
 40
1.0
 40
1.0
 10
3.47534
 20
2.09629
 30
0.0
 10
3.50489
 20
1.44878
 30
0.0
 10
3.38371
 20
1.17215
 30
0.0
 10
3.26563
 20
1.66024
 30
0.0
 10
3.21
 20
1.88981
 30
0.0
 10
3.17884
 20
2.84587
 30
0.0
 10
3.10285
 20
3.11121
 30
0.0
 10
3.04561
 20
3.3111
 30
0.0
 10
3.04413
 20
3.33333
 30
0.0
 10
3.07629
 20
3.52392
 30
0.0
 10
3.11303
 20
3.74219
 30
0.0
 10
2.92493
 20
4.02764
 30
0.0
 10
3.04822
 20
3.85468
 30
0.0
 10
3.2439
 20
3.58016
 30
0.0
 10
3.47286
 20
3.56091
 30
0.0
 10
3.7521
 20
3.74902
 30
0.0
 10
4.10857
 20
3.98928
 30
0.0
 10
3.96081
 20
3.71922
 30
0.0
 10
3.75148
 20
3.51796
 30
0.0
 10
3.48763
 20
3.2644
 30
0.0
 10
3.45236
 20
2.60126
 30
0.0
 10
3.47534
 20
2.09629
 30
0.0
  0
SPLINE
  5
7A
330
1F
100
AcDbEntity
  8
Plan 1
 62
   250
370
    20
100
AcDbSpline
210
0.0
220
0.0
230
1.0
 70
    11
 71
     3
 72
   128
 73
   124
 74
     0
 42
0.0000000001
 43
0.0000000001
 40
0.0
 40
0.0
 40
0.0
 40
0.0
 40
0.024390243902439
 40
0.024390243902439
 40
0.024390243902439
 40
0.0487804878048781
 40
0.0487804878048781
 40
0.0487804878048781
 40
0.0731707317073171
 40
0.0731707317073171
 40
0.0731707317073171
 40
0.0975609756097561
 40
0.0975609756097561
 40
0.0975609756097561
 40
0.1219512195121951
 40
0.1219512195121951
 40
0.1219512195121951
 40
0.1463414634146342
 40
0.1463414634146342
 40
0.1463414634146342
 40
0.1707317073170732
 40
0.1707317073170732
 40
0.1707317073170732
 40
0.1951219512195122
 40
0.1951219512195122
 40
0.1951219512195122
 40
0.2195121951219512
 40
0.2195121951219512
 40
0.2195121951219512
 40
0.2439024390243902
 40
0.2439024390243902
 40
0.2439024390243902
 40
0.2682926829268293
 40
0.2682926829268293
 40
0.2682926829268293
 40
0.2926829268292683
 40
0.2926829268292683
 40
0.2926829268292683
 40
0.3170731707317073
 40
0.3170731707317073
 40
0.3170731707317073
 40
0.3414634146341464
 40
0.3414634146341464
 40
0.3414634146341464
 40
0.3658536585365854
 40
0.3658536585365854
 40
0.3658536585365854
 40
0.3902439024390244
 40
0.3902439024390244
 40
0.3902439024390244
 40
0.4146341463414634
 40
0.4146341463414634
 40
0.4146341463414634
 40
0.4390243902439024
 40
0.4390243902439024
 40
0.4390243902439024
 40
0.4634146341463415
 40
0.4634146341463415
 40
0.4634146341463415
 40
0.4878048780487805
 40
0.4878048780487805
 40
0.4878048780487805
 40
0.5121951219512195
 40
0.5121951219512195
 40
0.5121951219512195
 40
0.5365853658536586
 40
0.5365853658536586
 40
0.5365853658536586
 40
0.5609756097560976
 40
0.5609756097560976
 40
0.5609756097560976
 40
0.5853658536585367
 40
0.5853658536585367
 40
0.5853658536585367
 40
0.6097560975609756
 40
0.6097560975609756
 40
0.6097560975609756
 40
0.6341463414634146
 40
0.6341463414634146
 40
0.6341463414634146
 40
0.6585365853658537
 40
0.6585365853658537
 40
0.6585365853658537
 40
0.6829268292682927
 40
0.6829268292682927
 40
0.6829268292682927
 40
0.7073170731707318
 40
0.7073170731707318
 40
0.7073170731707318
 40
0.7317073170731707
 40
0.7317073170731707
 40
0.7317073170731707
 40
0.7560975609756098
 40
0.7560975609756098
 40
0.7560975609756098
 40
0.7804878048780488
 40
0.7804878048780488
 40
0.7804878048780488
 40
0.8048780487804879
 40
0.8048780487804879
 40
0.8048780487804879
 40
0.8292682926829269
 40
0.8292682926829269
 40
0.8292682926829269
 40
0.8536585365853658
 40
0.8536585365853658
 40
0.8536585365853658
 40
0.8780487804878049
 40
0.8780487804878049
 40
0.8780487804878049
 40
0.9024390243902439
 40
0.9024390243902439
 40
0.9024390243902439
 40
0.926829268292683
 40
0.926829268292683
 40
0.926829268292683
 40
0.951219512195122
 40
0.951219512195122
 40
0.951219512195122
 40
0.975609756097561
 40
0.975609756097561
 40
0.975609756097561
 40
1.0
 40
1.0
 40
1.0
 40
1.0
 10
2.98476
 20
-4.9518
 30
0.0
 10
3.042
 20
-4.9518
 30
0.0
 10
3.20129
 20
-5.2087
 30
0.0
 10
3.23631
 20
-5.3572
 30
0.0
 10
3.35017
 20
-5.84131
 30
0.0
 10
4.25295
 20
-6.10317
 30
0.0
 10
3.84918
 20
-6.46063
 30
0.0
 10
3.6746
 20
-6.61509
 30
0.0
 10
3.76698
 20
-6.63137
 30
0.0
 10
3.68143
 20
-6.71691
 30
0.0
 10
3.48526
 20
-6.91309
 30
0.0
 10
3.15759
 20
-6.38875
 30
0.0
 10
3.15759
 20
-6.67544
 30
0.0
 10
3.15759
 20
-7.13882
 30
0.0
 10
3.54386
 20
-7.112
 30
0.0
 10
3.90468
 20
-7.00025
 30
0.0
 10
3.85464
 20
-7.53303
 30
0.0
 10
3.82062
 20
-7.55986
 30
0.0
 10
4.04833
 20
-7.28458
 30
0.0
 10
4.33515
 20
-6.9378
 30
0.0
 10
4.00835
 20
-6.84753
 30
0.0
 10
4.09812
 20
-6.65061
 30
0.0
 10
4.15202
 20
-6.53216
 30
0.0
 10
4.19882
 20
-6.55289
 30
0.0
 10
4.28015
 20
-6.73119
 30
0.0
 10
4.37141
 20
-6.93135
 30
0.0
 10
4.35415
 20
-7.15174
 30
0.0
 10
4.35502
 20
-7.38864
 30
0.0
 10
4.00302
 20
-7.68488
 30
0.0
 10
3.73867
 20
-7.89373
 30
0.0
 10
3.58819
 20
-8.23356
 30
0.0
 10
3.56534
 20
-8.28534
 30
0.0
 10
3.51171
 20
-8.33637
 30
0.0
 10
3.46924
 20
-8.34704
 30
0.0
 10
3.11786
 20
-8.43519
 30
0.0
 10
3.68206
 20
-8.97183
 30
0.0
 10
3.28412
 20
-9.00461
 30
0.0
 10
3.28412
 20
-9.00461
 30
0.0
 10
3.28461
 20
-9.00497
 30
0.0
 10
3.28461
 20
-9.00497
 30
0.0
 10
2.86146
 20
-9.03986
 30
0.0
 10
2.94477
 20
-8.92949
 30
0.0
 10
2.67757
 20
-8.81935
 30
0.0
 10
2.47071
 20
-8.73418
 30
0.0
 10
2.24946
 20
-8.52682
 30
0.0
 10
2.1438
 20
-8.31898
 30
0.0
 10
2.0714
 20
-8.17656
 30
0.0
 10
1.69134
 20
-7.853
 30
0.0
 10
1.87026
 20
-7.853
 30
0.0
 10
2.00535
 20
-7.853
 30
0.0
 10
3.32681
 20
-8.43073
 30
0.0
 10
3.32681
 20
-8.1716
 30
0.0
 10
3.32681
 20
-8.07822
 30
0.0
 10
2.85873
 20
-7.88677
 30
0.0
 10
3.13735
 20
-7.88677
 30
0.0
 10
3.36245
 20
-7.88677
 30
0.0
 10
3.71321
 20
-7.04121
 30
0.0
 10
3.20588
 20
-7.52085
 30
0.0
 10
2.99456
 20
-7.72063
 30
0.0
 10
2.3704
 20
-7.77675
 30
0.0
 10
1.98946
 20
-7.55947
 30
0.0
 10
1.2908
 20
-7.1609
 30
0.0
 10
1.57378
 20
-6.71964
 30
0.0
 10
1.40528
 20
-6.40488
 30
0.0
 10
1.33153
 20
-6.26694
 30
0.0
 10
1.52671
 20
-6.03414
 30
0.0
 10
1.49356
 20
-5.66959
 30
0.0
 10
1.44625
 20
-5.14823
 30
0.0
 10
1.31464
 20
-4.99191
 30
0.0
 10
1.38578
 20
-4.9646
 30
0.0
 10
1.51654
 20
-4.91444
 30
0.0
 10
1.77504
 20
-5.40463
 30
0.0
 10
1.77504
 20
-5.08628
 30
0.0
 10
1.77504
 20
-4.7462
 30
0.0
 10
1.19558
 20
-4.59348
 30
0.0
 10
1.14392
 20
-4.09261
 30
0.0
 10
1.11189
 20
-3.7827
 30
0.0
 10
1.49854
 20
-3.07707
 30
0.0
 10
1.73718
 20
-3.22831
 30
0.0
 10
1.82446
 20
-3.28356
 30
0.0
 10
1.68142
 20
-3.51412
 30
0.0
 10
1.72115
 20
-3.71254
 30
0.0
 10
1.74177
 20
-3.8156
 30
0.0
 10
1.85961
 20
-3.97365
 30
0.0
 10
1.91585
 20
-3.97365
 30
0.0
 10
2.05541
 20
-3.97365
 30
0.0
 10
1.63947
 20
-2.96122
 30
0.0
 10
2.53331
 20
-3.39791
 30
0.0
 10
2.69088
 20
-3.47488
 30
0.0
 10
2.83664
 20
-3.56925
 30
0.0
 10
2.85725
 20
-3.60774
 30
0.0
 10
2.93758
 20
-3.75798
 30
0.0
 10
2.87525
 20
-4.25972
 30
0.0
 10
2.77853
 20
-4.37457
 30
0.0
 10
2.61847
 20
-4.56454
 30
0.0
 10
2.78027
 20
-4.48444
 30
0.0
 10
2.48687
 20
-4.77698
 30
0.0
 10
2.1921
 20
-5.07088
 30
0.0
 10
2.17012
 20
-5.12787
 30
0.0
 10
2.14678
 20
-5.66027
 30
0.0
 10
2.12704
 20
-6.11111
 30
0.0
 10
2.10271
 20
-6.21119
 30
0.0
 10
1.99058
 20
-6.30393
 30
0.0
 10
1.77962
 20
-6.47851
 30
0.0
 10
1.79651
 20
-6.82319
 30
0.0
 10
1.90006
 20
-7.06009
 30
0.0
 10
2.03267
 20
-6.62192
 30
0.0
 10
2.31092
 20
-6.3433
 30
0.0
 10
2.36667
 20
-6.12129
 30
0.0
 10
2.41845
 20
-5.91505
 30
0.0
 10
2.44415
 20
-6.11967
 30
0.0
 10
2.50052
 20
-6.16648
 30
0.0
 10
2.56534
 20
-6.22025
 30
0.0
 10
2.47756
 20
-6.86627
 30
0.0
 10
2.68714
 20
-7.12092
 30
0.0
 10
2.70564
 20
-7.14353
 30
0.0
 10
2.82347
 20
-6.8988
 30
0.0
 10
2.75816
 20
-6.72659
 30
0.0
 10
2.65225
 20
-6.44722
 30
0.0
 10
3.00238
 20
-6.22957
 30
0.0
 10
2.64977
 20
-5.69728
 30
0.0
 10
2.43583
 20
-5.3742
 30
0.0
 10
2.60245
 20
-4.95155
 30
0.0
 10
2.98476
 20
-4.9518
 30
0.0
  0
SPLINE
  5
7B
330
1F
100
AcDbEntity
  8
Plan 1
 62
   250
370
    20
100
AcDbSpline
210
0.0
220
0.0
230
1.0
 70
    11
 71
     3
 72
    56
 73
    52
 74
     0
 42
0.0000000001
 43
0.0000000001
 40
0.0
 40
0.0
 40
0.0
 40
0.0
 40
0.0588235294117647
 40
0.0588235294117647
 40
0.0588235294117647
 40
0.1176470588235294
 40
0.1176470588235294
 40
0.1176470588235294
 40
0.1764705882352941
 40
0.1764705882352941
 40
0.1764705882352941
 40
0.2352941176470588
 40
0.2352941176470588
 40
0.2352941176470588
 40
0.2941176470588235
 40
0.2941176470588235
 40
0.2941176470588235
 40
0.3529411764705882
 40
0.3529411764705882
 40
0.3529411764705882
 40
0.4117647058823529
 40
0.4117647058823529
 40
0.4117647058823529
 40
0.4705882352941176
 40
0.4705882352941176
 40
0.4705882352941176
 40
0.5294117647058824
 40
0.5294117647058824
 40
0.5294117647058824
 40
0.5882352941176471
 40
0.5882352941176471
 40
0.5882352941176471
 40
0.6470588235294118
 40
0.6470588235294118
 40
0.6470588235294118
 40
0.7058823529411764
 40
0.7058823529411764
 40
0.7058823529411764
 40
0.7647058823529411
 40
0.7647058823529411
 40
0.7647058823529411
 40
0.8235294117647058
 40
0.8235294117647058
 40
0.8235294117647058
 40
0.8823529411764706
 40
0.8823529411764706
 40
0.8823529411764706
 40
0.9411764705882353
 40
0.9411764705882353
 40
0.9411764705882353
 40
1.0
 40
1.0
 40
1.0
 40
1.0
 10
2.02101
 20
-8.7297
 30
0.0
 10
2.04956
 20
-8.91781
 30
0.0
 10
2.0862
 20
-8.97083
 30
0.0
 10
1.97693
 20
-9.00224
 30
0.0
 10
1.79565
 20
-9.05438
 30
0.0
 10
1.25095
 20
-9.01813
 30
0.0
 10
0.93409
 20
-8.93283
 30
0.0
 10
0.93409
 20
-8.93283
 30
0.0
 10
0.93383
 20
-8.93307
 30
0.0
 10
0.93383
 20
-8.93307
 30
0.0
 10
0.86107
 20
-8.91357
 30
0.0
 10
0.75069
 20
-8.84405
 30
0.0
 10
0.68513
 20
-8.7765
 30
0.0
 10
0.45084
 20
-8.53538
 30
0.0
 10
0.32929
 20
-8.73726
 30
0.0
 10
0.16018
 20
-8.54059
 30
0.0
 10
-0.01776
 20
-8.33385
 30
0.0
 10
-0.10156
 20
-8.46125
 30
0.0
 10
-0.17817
 20
-8.15655
 30
0.0
 10
-0.2436
 20
-7.89631
 30
0.0
 10
-0.06158
 20
-7.56504
 30
0.0
 10
-0.02594
 20
-7.57013
 30
0.0
 10
0.02099
 20
-7.57683
 30
0.0
 10
0.32308
 20
-8.10204
 30
0.0
 10
0.32345
 20
-8.17766
 30
0.0
 10
0.3237
 20
-8.22534
 30
0.0
 10
0.38876
 20
-8.38861
 30
0.0
 10
0.45916
 20
-8.257
 30
0.0
 10
0.55104
 20
-8.08541
 30
0.0
 10
0.2898
 20
-7.70708
 30
0.0
 10
0.53862
 20
-7.83633
 30
0.0
 10
0.84171
 20
-7.99365
 30
0.0
 10
0.96662
 20
-7.79884
 30
0.0
 10
0.56445
 20
-7.6676
 30
0.0
 10
0.11697
 20
-7.52159
 30
0.0
 10
-0.09411
 20
-6.88067
 30
0.0
 10
0.22834
 20
-7.11819
 30
0.0
 10
0.46971
 20
-7.29599
 30
0.0
 10
0.92576
 20
-7.31213
 30
0.0
 10
1.0986
 20
-7.64613
 30
0.0
 10
1.25777
 20
-7.95367
 30
0.0
 10
1.61897
 20
-8.01886
 30
0.0
 10
1.43719
 20
-8.443
 30
0.0
 10
1.33675
 20
-8.67731
 30
0.0
 10
1.40914
 20
-9.13124
 30
0.0
 10
1.50213
 20
-8.88776
 30
0.0
 10
1.50226
 20
-8.88739
 30
0.0
 10
1.64244
 20
-8.16824
 30
0.0
 10
1.77256
 20
-8.35734
 30
0.0
 10
1.85934
 20
-8.48348
 30
0.0
 10
1.9968
 20
-8.56991
 30
0.0
 10
2.02101
 20
-8.7297
 30
0.0
  0
SPLINE
  5
7C
330
1F
100
AcDbEntity
  8
Plan 1
 62
   250
370
    20
100
AcDbSpline
210
0.0
220
0.0
230
1.0
 70
    11
 71
     3
 72
   239
 73
   235
 74
     0
 42
0.0000000001
 43
0.0000000001
 40
0.0
 40
0.0
 40
0.0
 40
0.0
 40
0.0128205128205128
 40
0.0128205128205128
 40
0.0128205128205128
 40
0.0256410256410256
 40
0.0256410256410256
 40
0.0256410256410256
 40
0.0384615384615385
 40
0.0384615384615385
 40
0.0384615384615385
 40
0.0512820512820513
 40
0.0512820512820513
 40
0.0512820512820513
 40
0.0641025641025641
 40
0.0641025641025641
 40
0.0641025641025641
 40
0.0769230769230769
 40
0.0769230769230769
 40
0.0769230769230769
 40
0.0897435897435897
 40
0.0897435897435897
 40
0.0897435897435897
 40
0.1025641025641026
 40
0.1025641025641026
 40
0.1025641025641026
 40
0.1153846153846154
 40
0.1153846153846154
 40
0.1153846153846154
 40
0.1282051282051282
 40
0.1282051282051282
 40
0.1282051282051282
 40
0.141025641025641
 40
0.141025641025641
 40
0.141025641025641
 40
0.1538461538461539
 40
0.1538461538461539
 40
0.1538461538461539
 40
0.1666666666666667
 40
0.1666666666666667
 40
0.1666666666666667
 40
0.1794871794871795
 40
0.1794871794871795
 40
0.1794871794871795
 40
0.1923076923076923
 40
0.1923076923076923
 40
0.1923076923076923
 40
0.2051282051282051
 40
0.2051282051282051
 40
0.2051282051282051
 40
0.217948717948718
 40
0.217948717948718
 40
0.217948717948718
 40
0.2307692307692308
 40
0.2307692307692308
 40
0.2307692307692308
 40
0.2435897435897436
 40
0.2435897435897436
 40
0.2435897435897436
 40
0.2564102564102564
 40
0.2564102564102564
 40
0.2564102564102564
 40
0.2692307692307692
 40
0.2692307692307692
 40
0.2692307692307692
 40
0.282051282051282
 40
0.282051282051282
 40
0.282051282051282
 40
0.2948717948717949
 40
0.2948717948717949
 40
0.2948717948717949
 40
0.3076923076923077
 40
0.3076923076923077
 40
0.3076923076923077
 40
0.3205128205128205
 40
0.3205128205128205
 40
0.3205128205128205
 40
0.3333333333333333
 40
0.3333333333333333
 40
0.3333333333333333
 40
0.3461538461538461
 40
0.3461538461538461
 40
0.3461538461538461
 40
0.358974358974359
 40
0.358974358974359
 40
0.358974358974359
 40
0.3717948717948718
 40
0.3717948717948718
 40
0.3717948717948718
 40
0.3846153846153846
 40
0.3846153846153846
 40
0.3846153846153846
 40
0.3974358974358974
 40
0.3974358974358974
 40
0.3974358974358974
 40
0.4102564102564102
 40
0.4102564102564102
 40
0.4102564102564102
 40
0.4230769230769231
 40
0.4230769230769231
 40
0.4230769230769231
 40
0.4358974358974359
 40
0.4358974358974359
 40
0.4358974358974359
 40
0.4487179487179487
 40
0.4487179487179487
 40
0.4487179487179487
 40
0.4615384615384615
 40
0.4615384615384615
 40
0.4615384615384615
 40
0.4743589743589743
 40
0.4743589743589743
 40
0.4743589743589743
 40
0.4871794871794872
 40
0.4871794871794872
 40
0.4871794871794872
 40
0.5
 40
0.5
 40
0.5
 40
0.5128205128205128
 40
0.5128205128205128
 40
0.5128205128205128
 40
0.5256410256410257
 40
0.5256410256410257
 40
0.5256410256410257
 40
0.5384615384615384
 40
0.5384615384615384
 40
0.5384615384615384
 40
0.5512820512820512
 40
0.5512820512820512
 40
0.5512820512820512
 40
0.5641025641025641
 40
0.5641025641025641
 40
0.5641025641025641
 40
0.5769230769230769
 40
0.5769230769230769
 40
0.5769230769230769
 40
0.5897435897435898
 40
0.5897435897435898
 40
0.5897435897435898
 40
0.6025641025641025
 40
0.6025641025641025
 40
0.6025641025641025
 40
0.6153846153846154
 40
0.6153846153846154
 40
0.6153846153846154
 40
0.6282051282051282
 40
0.6282051282051282
 40
0.6282051282051282
 40
0.641025641025641
 40
0.641025641025641
 40
0.641025641025641
 40
0.6538461538461539
 40
0.6538461538461539
 40
0.6538461538461539
 40
0.6666666666666666
 40
0.6666666666666666
 40
0.6666666666666666
 40
0.6794871794871795
 40
0.6794871794871795
 40
0.6794871794871795
 40
0.6923076923076923
 40
0.6923076923076923
 40
0.6923076923076923
 40
0.7051282051282051
 40
0.7051282051282051
 40
0.7051282051282051
 40
0.717948717948718
 40
0.717948717948718
 40
0.717948717948718
 40
0.7307692307692307
 40
0.7307692307692307
 40
0.7307692307692307
 40
0.7435897435897436
 40
0.7435897435897436
 40
0.7435897435897436
 40
0.7564102564102564
 40
0.7564102564102564
 40
0.7564102564102564
 40
0.7692307692307692
 40
0.7692307692307692
 40
0.7692307692307692
 40
0.782051282051282
 40
0.782051282051282
 40
0.782051282051282
 40
0.7948717948717948
 40
0.7948717948717948
 40
0.7948717948717948
 40
0.8076923076923077
 40
0.8076923076923077
 40
0.8076923076923077
 40
0.8205128205128205
 40
0.8205128205128205
 40
0.8205128205128205
 40
0.8333333333333333
 40
0.8333333333333333
 40
0.8333333333333333
 40
0.8461538461538461
 40
0.8461538461538461
 40
0.8461538461538461
 40
0.8589743589743589
 40
0.8589743589743589
 40
0.8589743589743589
 40
0.8717948717948718
 40
0.8717948717948718
 40
0.8717948717948718
 40
0.8846153846153846
 40
0.8846153846153846
 40
0.8846153846153846
 40
0.8974358974358974
 40
0.8974358974358974
 40
0.8974358974358974
 40
0.9102564102564102
 40
0.9102564102564102
 40
0.9102564102564102
 40
0.923076923076923
 40
0.923076923076923
 40
0.923076923076923
 40
0.9358974358974359
 40
0.9358974358974359
 40
0.9358974358974359
 40
0.9487179487179487
 40
0.9487179487179487
 40
0.9487179487179487
 40
0.9615384615384615
 40
0.9615384615384615
 40
0.9615384615384615
 40
0.9743589743589743
 40
0.9743589743589743
 40
0.9743589743589743
 40
0.9871794871794871
 40
0.9871794871794871
 40
0.9871794871794871
 40
1.0
 40
1.0
 40
1.0
 40
1.0
 10
9.06703
 20
3.18954
 30
0.0
 10
8.99836
 20
3.45003
 30
0.0
 10
9.31447
 20
3.74628
 30
0.0
 10
9.41505
 20
3.5835
 30
0.0
 10
9.50407
 20
3.43923
 30
0.0
 10
9.62662
 20
3.81731
 30
0.0
 10
9.1769
 20
3.76441
 30
0.0
 10
8.8645
 20
3.72766
 30
0.0
 10
8.90263
 20
3.98281
 30
0.0
 10
8.77237
 20
4.09083
 30
0.0
 10
8.54801
 20
4.27707
 30
0.0
 10
8.99885
 20
4.4776
 30
0.0
 10
9.3804
 20
4.47636
 30
0.0
 10
9.92435
 20
4.47462
 30
0.0
 10
9.88735
 20
4.34648
 30
0.0
 10
10.19056
 20
3.9545
 30
0.0
 10
10.43466
 20
3.63899
 30
0.0
 10
10.39294
 20
3.35591
 30
0.0
 10
10.76121
 20
3.01645
 30
0.0
 10
11.071
 20
2.73088
 30
0.0
 10
11.36564
 20
2.98988
 30
0.0
 10
11.31795
 20
3.01869
 30
0.0
 10
10.83098
 20
3.31319
 30
0.0
 10
10.88487
 20
3.12981
 30
0.0
 10
10.7437
 20
3.42817
 30
0.0
 10
10.54354
 20
3.85131
 30
0.0
 10
10.698
 20
3.73212
 30
0.0
 10
10.99065
 20
3.79259
 30
0.0
 10
11.25636
 20
3.84747
 30
0.0
 10
11.26853
 20
3.71822
 30
0.0
 10
11.47923
 20
3.71822
 30
0.0
 10
11.60899
 20
3.71822
 30
0.0
 10
11.80082
 20
3.59717
 30
0.0
 10
11.94509
 20
3.54949
 30
0.0
 10
12.27164
 20
3.44171
 30
0.0
 10
12.27213
 20
2.93799
 30
0.0
 10
12.63457
 20
2.85839
 30
0.0
 10
12.75154
 20
2.83268
 30
0.0
 10
12.90637
 20
2.49422
 30
0.0
 10
12.90637
 20
2.75372
 30
0.0
 10
12.90637
 20
2.85567
 30
0.0
 10
12.76308
 20
3.0434
 30
0.0
 10
12.65605
 20
3.0434
 30
0.0
 10
12.52966
 20
3.0434
 30
0.0
 10
12.32031
 20
3.66508
 30
0.0
 10
12.13234
 20
3.752
 30
0.0
 10
11.98384
 20
3.82066
 30
0.0
 10
12.21789
 20
3.87604
 30
0.0
 10
12.30691
 20
3.79545
 30
0.0
 10
12.43195
 20
3.68222
 30
0.0
 10
12.45168
 20
3.86897
 30
0.0
 10
12.55487
 20
3.78329
 30
0.0
 10
12.59374
 20
3.75113
 30
0.0
 10
12.6028
 20
3.75696
 30
0.0
 10
12.6028
 20
3.81445
 30
0.0
 10
12.6028
 20
3.96357
 30
0.0
 10
12.1676
 20
4.0773
 30
0.0
 10
11.998
 20
3.97251
 30
0.0
 10
11.88464
 20
3.90235
 30
0.0
 10
11.47937
 20
3.93029
 30
0.0
 10
11.37284
 20
3.98579
 30
0.0
 10
11.16498
 20
4.09406
 30
0.0
 10
10.58875
 20
3.97648
 30
0.0
 10
10.49215
 20
4.20767
 30
0.0
 10
10.30068
 20
4.66583
 30
0.0
 10
9.46296
 20
4.79832
 30
0.0
 10
9.97165
 20
4.88212
 30
0.0
 10
10.16782
 20
4.9144
 30
0.0
 10
10.27871
 20
5.06465
 30
0.0
 10
10.44769
 20
5.23599
 30
0.0
 10
10.44769
 20
5.23599
 30
0.0
 10
10.96496
 20
5.23599
 30
0.0
 10
10.96496
 20
5.23599
 30
0.0
 10
11.05237
 20
5.32787
 30
0.0
 10
11.33943
 20
5.6487
 30
0.0
 10
11.41132
 20
5.6348
 30
0.0
 10
11.50394
 20
5.61692
 30
0.0
 10
11.65505
 20
5.18981
 30
0.0
 10
11.83322
 20
5.09755
 30
0.0
 10
12.19504
 20
4.91031
 30
0.0
 10
12.16014
 20
4.56924
 30
0.0
 10
12.30219
 20
4.4406
 30
0.0
 10
12.41133
 20
4.34178
 30
0.0
 10
12.4235
 20
4.19725
 30
0.0
 10
12.57001
 20
4.11071
 30
0.0
 10
12.69739
 20
4.03546
 30
0.0
 10
12.80517
 20
3.82762
 30
0.0
 10
12.80517
 20
3.65701
 30
0.0
 10
12.80517
 20
3.454
 30
0.0
 10
12.95652
 20
3.40099
 30
0.0
 10
12.92002
 20
3.31519
 30
0.0
 10
12.81747
 20
3.07395
 30
0.0
 10
12.98695
 20
3.04092
 30
0.0
 10
13.03475
 20
3.22046
 30
0.0
 10
13.09844
 20
3.45997
 30
0.0
 10
13.50843
 20
3.19339
 30
0.0
 10
13.54046
 20
3.35542
 30
0.0
 10
13.56467
 20
3.47722
 30
0.0
 10
13.24111
 20
3.35282
 30
0.0
 10
13.13445
 20
3.4735
 30
0.0
 10
13.07385
 20
3.54205
 30
0.0
 10
12.95255
 20
3.91043
 30
0.0
 10
12.9811
 20
3.93899
 30
0.0
 10
13.08701
 20
4.0449
 30
0.0
 10
13.47986
 20
3.9416
 30
0.0
 10
13.47986
 20
4.14175
 30
0.0
 10
13.47986
 20
4.23872
 30
0.0
 10
13.48123
 20
4.23835
 30
0.0
 10
13.35719
 20
4.17366
 30
0.0
 10
12.78195
 20
3.87368
 30
0.0
 10
12.26022
 20
5.06776
 30
0.0
 10
12.35818
 20
5.06726
 30
0.0
 10
12.40747
 20
5.06701
 30
0.0
 10
12.8963
 20
4.8044
 30
0.0
 10
12.99848
 20
4.75858
 30
0.0
 10
13.09383
 20
4.84662
 30
0.0
 10
13.42635
 20
5.07581
 30
0.0
 10
13.49376
 20
5.0084
 30
0.0
 10
13.51822
 20
4.98382
 30
0.0
 10
13.51351
 20
4.73065
 30
0.0
 10
13.51351
 20
4.66248
 30
0.0
 10
13.08751
 20
4.66248
 30
0.0
 10
13.20733
 20
4.67379
 30
0.0
 10
12.89282
 20
4.43502
 30
0.0
 10
13.0325
 20
4.36276
 30
0.0
 10
13.28679
 20
4.26505
 30
0.0
 10
13.37855
 20
4.37567
 30
0.0
 10
13.59347
 20
4.63468
 30
0.0
 10
13.75525
 20
3.94843
 30
0.0
 10
13.56826
 20
3.9015
 30
0.0
 10
13.4359
 20
3.86823
 30
0.0
 10
12.96296
 20
3.99624
 30
0.0
 10
13.17702
 20
3.76703
 30
0.0
 10
13.4261
 20
3.50033
 30
0.0
 10
13.93268
 20
4.15094
 30
0.0
 10
13.92138
 20
2.38548
 30
0.0
 10
13.91654
 20
1.62137
 30
0.0
 10
13.92821
 20
0.97263
 30
0.0
 10
13.50867
 20
0.83542
 30
0.0
 10
13.17827
 20
0.72728
 30
0.0
 10
12.8634
 20
0.41005
 30
0.0
 10
12.6214
 20
0.41476
 30
0.0
 10
12.6214
 20
0.41476
 30
0.0
 10
12.62144
 20
0.41512
 30
0.0
 10
12.62144
 20
0.41512
 30
0.0
 10
12.46263
 20
0.41822
 30
0.0
 10
12.46611
 20
0.4171
 30
0.0
 10
12.11709
 20
0.57218
 30
0.0
 10
11.60914
 20
0.79779
 30
0.0
 10
11.777
 20
0.5651
 30
0.0
 10
11.31935
 20
0.73086
 30
0.0
 10
11.03861
 20
0.83243
 30
0.0
 10
11.0139
 20
0.89352
 30
0.0
 10
11.26533
 20
0.86397
 30
0.0
 10
11.49167
 20
0.8374
 30
0.0
 10
11.68252
 20
1.00192
 30
0.0
 10
11.74621
 20
0.94902
 30
0.0
 10
11.82083
 20
0.88719
 30
0.0
 10
11.80655
 20
1.09503
 30
0.0
 10
11.73019
 20
1.18307
 30
0.0
 10
11.52024
 20
1.42519
 30
0.0
 10
11.2585
 20
1.12086
 30
0.0
 10
11.0545
 20
1.12086
 30
0.0
 10
10.87112
 20
1.12086
 30
0.0
 10
10.83337
 20
1.36733
 30
0.0
 10
10.70883
 20
1.52564
 30
0.0
 10
11.29873
 20
1.52328
 30
0.0
 10
11.72224
 20
1.21375
 30
0.0
 10
12.21964
 20
1.69587
 30
0.0
 10
12.59586
 20
1.52936
 30
0.0
 10
12.79365
 20
1.56363
 30
0.0
 10
13.25206
 20
1.56761
 30
0.0
 10
13.61051
 20
1.57071
 30
0.0
 10
13.61473
 20
1.57171
 30
0.0
 10
13.61473
 20
1.65092
 30
0.0
 10
13.61473
 20
2.20547
 30
0.0
 10
12.56903
 20
1.53685
 30
0.0
 10
12.56903
 20
1.85852
 30
0.0
 10
12.56903
 20
1.87341
 30
0.0
 10
12.66823
 20
1.9525
 30
0.0
 10
12.78954
 20
2.03445
 30
0.0
 10
13.23156
 20
2.33307
 30
0.0
 10
12.99342
 20
2.40272
 30
0.0
 10
13.32469
 20
2.40272
 30
0.0
 10
13.56023
 20
2.40272
 30
0.0
 10
13.68228
 20
2.44829
 30
0.0
 10
13.68228
 20
2.53607
 30
0.0
 10
13.68228
 20
2.6431
 30
0.0
 10
13.85089
 20
2.66843
 30
0.0
 10
13.85089
 20
2.79457
 30
0.0
 10
13.85089
 20
2.89266
 30
0.0
 10
13.83711
 20
2.89378
 30
0.0
 10
13.71382
 20
2.806
 30
0.0
 10
13.43595
 20
2.60821
 30
0.0
 10
13.19917
 20
2.881
 30
0.0
 10
12.57165
 20
2.24255
 30
0.0
 10
12.23095
 20
1.89601
 30
0.0
 10
11.73729
 20
1.66668
 30
0.0
 10
11.27031
 20
1.77943
 30
0.0
 10
11.00535
 20
1.84337
 30
0.0
 10
10.58431
 20
1.79457
 30
0.0
 10
10.49181
 20
2.01608
 30
0.0
 10
10.32656
 20
2.41166
 30
0.0
 10
10.82333
 20
2.41662
 30
0.0
 10
11.19159
 20
2.49485
 30
0.0
 10
11.62281
 20
2.13192
 30
0.0
 10
11.67383
 20
2.55035
 30
0.0
 10
11.92204
 20
2.28266
 30
0.0
 10
12.04583
 20
2.14918
 30
0.0
 10
12.53528
 20
2.19425
 30
0.0
 10
12.53528
 20
2.3918
 30
0.0
 10
12.53528
 20
2.47585
 30
0.0
 10
12.40999
 20
2.35305
 30
0.0
 10
12.29651
 20
2.45574
 30
0.0
 10
12.21977
 20
2.52514
 30
0.0
 10
12.06917
 20
2.53929
 30
0.0
 10
11.96077
 20
2.55456
 30
0.0
 10
11.96077
 20
2.55456
 30
0.0
 10
12.05178
 20
2.68208
 30
0.0
 10
12.05178
 20
2.68208
 30
0.0
 10
12.20226
 20
2.89315
 30
0.0
 10
12.07809
 20
2.95052
 30
0.0
 10
11.8484
 20
2.79233
 30
0.0
 10
11.40899
 20
2.48975
 30
0.0
 10
11.3556
 20
2.77594
 30
0.0
 10
10.97293
 20
2.66221
 30
0.0
 10
10.16538
 20
2.42221
 30
0.0
 10
10.52732
 20
2.76825
 30
0.0
 10
10.02818
 20
3.2906
 30
0.0
 10
9.69505
 20
2.87938
 30
0.0
 10
10.21056
 20
2.76652
 30
0.0
 10
10.16612
 20
2.63155
 30
0.0
 10
10.08516
 20
2.38558
 30
0.0
 10
9.16139
 20
2.83194
 30
0.0
 10
9.06703
 20
3.18954
 30
0.0
  0
SPLINE
  5
7D
330
1F
100
AcDbEntity
  8
Plan 1
 62
   250
370
    20
100
AcDbSpline
210
0.0
220
0.0
230
1.0
 70
    11
 71
     3
 72
    68
 73
    64
 74
     0
 42
0.0000000001
 43
0.0000000001
 40
0.0
 40
0.0
 40
0.0
 40
0.0
 40
0.0476190476190476
 40
0.0476190476190476
 40
0.0476190476190476
 40
0.0952380952380952
 40
0.0952380952380952
 40
0.0952380952380952
 40
0.1428571428571428
 40
0.1428571428571428
 40
0.1428571428571428
 40
0.1904761904761905
 40
0.1904761904761905
 40
0.1904761904761905
 40
0.2380952380952381
 40
0.2380952380952381
 40
0.2380952380952381
 40
0.2857142857142857
 40
0.2857142857142857
 40
0.2857142857142857
 40
0.3333333333333333
 40
0.3333333333333333
 40
0.3333333333333333
 40
0.3809523809523809
 40
0.3809523809523809
 40
0.3809523809523809
 40
0.4285714285714285
 40
0.4285714285714285
 40
0.4285714285714285
 40
0.4761904761904762
 40
0.4761904761904762
 40
0.4761904761904762
 40
0.5238095238095237
 40
0.5238095238095237
 40
0.5238095238095237
 40
0.5714285714285714
 40
0.5714285714285714
 40
0.5714285714285714
 40
0.6190476190476191
 40
0.6190476190476191
 40
0.6190476190476191
 40
0.6666666666666666
 40
0.6666666666666666
 40
0.6666666666666666
 40
0.7142857142857142
 40
0.7142857142857142
 40
0.7142857142857142
 40
0.7619047619047619
 40
0.7619047619047619
 40
0.7619047619047619
 40
0.8095238095238095
 40
0.8095238095238095
 40
0.8095238095238095
 40
0.8571428571428571
 40
0.8571428571428571
 40
0.8571428571428571
 40
0.9047619047619047
 40
0.9047619047619047
 40
0.9047619047619047
 40
0.9523809523809523
 40
0.9523809523809523
 40
0.9523809523809523
 40
1.0
 40
1.0
 40
1.0
 40
1.0
 10
8.93442
 20
8.85187
 30
0.0
 10
8.84104
 20
8.94536
 30
0.0
 10
8.56615
 20
8.97417
 30
0.0
 10
8.40325
 20
9.00087
 30
0.0
 10
8.5238
 20
9.06506
 30
0.0
 10
8.92994
 20
9.25738
 30
0.0
 10
8.84278
 20
9.34454
 30
0.0
 10
8.80913
 20
9.37819
 30
0.0
 10
8.01834
 20
9.05375
 30
0.0
 10
8.48159
 20
9.517
 30
0.0
 10
8.67181
 20
9.70722
 30
0.0
 10
8.66474
 20
9.7539
 30
0.0
 10
8.82341
 20
9.56195
 30
0.0
 10
9.06155
 20
9.27389
 30
0.0
 10
9.07645
 20
9.79139
 30
0.0
 10
8.70496
 20
9.95566
 30
0.0
 10
8.51399
 20
10.0401
 30
0.0
 10
8.50754
 20
10.13123
 30
0.0
 10
8.67764
 20
10.33461
 30
0.0
 10
8.84985
 20
10.54047
 30
0.0
 10
8.82589
 20
10.648
 30
0.0
 10
8.97674
 20
10.72684
 30
0.0
 10
9.069
 20
10.77502
 30
0.0
 10
9.55038
 20
11.41073
 30
0.0
 10
9.48395
 20
11.04619
 30
0.0
 10
9.44932
 20
10.85585
 30
0.0
 10
9.29709
 20
10.80929
 30
0.0
 10
9.29709
 20
10.68178
 30
0.0
 10
9.29709
 20
10.53477
 30
0.0
 10
9.03486
 20
10.52024
 30
0.0
 10
8.95515
 20
10.37125
 30
0.0
 10
8.89729
 20
10.26322
 30
0.0
 10
9.0109
 20
10.18078
 30
0.0
 10
9.1116
 20
10.21244
 30
0.0
 10
9.43578
 20
10.31437
 30
0.0
 10
9.26332
 20
10.22374
 30
0.0
 10
9.38476
 20
10.08964
 30
0.0
 10
9.52642
 20
9.93319
 30
0.0
 10
9.21576
 20
9.95715
 30
0.0
 10
9.07782
 20
9.95616
 30
0.0
 10
9.37953
 20
9.70523
 30
0.0
 10
9.76891
 20
9.83213
 30
0.0
 10
9.81969
 20
10.05462
 30
0.0
 10
9.84203
 20
10.15233
 30
0.0
 10
9.99748
 20
10.34876
 30
0.0
 10
10.02816
 20
10.31797
 30
0.0
 10
10.0736
 20
10.27241
 30
0.0
 10
9.99264
 20
10.04543
 30
0.0
 10
9.89008
 20
9.93095
 30
0.0
 10
9.31757
 20
9.29202
 30
0.0
 10
10.0392
 20
8.98968
 30
0.0
 10
10.0392
 20
9.69344
 30
0.0
 10
10.0392
 20
9.91508
 30
0.0
 10
10.24208
 20
9.85672
 30
0.0
 10
10.29622
 20
10.0858
 30
0.0
 10
10.36289
 20
10.36801
 30
0.0
 10
10.67591
 20
10.35287
 30
0.0
 10
10.45241
 20
10.08591
 30
0.0
 10
10.26294
 20
9.85968
 30
0.0
 10
9.9796
 20
9.08119
 30
0.0
 10
9.72184
 20
9.08119
 30
0.0
 10
9.49512
 20
9.08119
 30
0.0
 10
9.14585
 20
8.64017
 30
0.0
 10
8.93442
 20
8.85187
 30
0.0
  0
SPLINE
  5
7E
330
1F
100
AcDbEntity
  8
Plan 1
 62
   250
370
    20
100
AcDbSpline
210
0.0
220
0.0
230
1.0
 70
    11
 71
     3
 72
    29
 73
    25
 74
     0
 42
0.0000000001
 43
0.0000000001
 40
0.0
 40
0.0
 40
0.0
 40
0.0
 40
0.125
 40
0.125
 40
0.125
 40
0.25
 40
0.25
 40
0.25
 40
0.375
 40
0.375
 40
0.375
 40
0.5
 40
0.5
 40
0.5
 40
0.625
 40
0.625
 40
0.625
 40
0.75
 40
0.75
 40
0.75
 40
0.875
 40
0.875
 40
0.875
 40
1.0
 40
1.0
 40
1.0
 40
1.0
 10
11.22929
 20
9.35088
 30
0.0
 10
11.31931
 20
9.47951
 30
0.0
 10
11.47067
 20
9.21156
 30
0.0
 10
11.04081
 20
9.13084
 30
0.0
 10
10.94173
 20
9.11222
 30
0.0
 10
10.91579
 20
9.12029
 30
0.0
 10
10.88424
 20
9.17926
 30
0.0
 10
10.81595
 20
9.30679
 30
0.0
 10
10.34277
 20
9.27115
 30
0.0
 10
10.34277
 20
9.35409
 30
0.0
 10
10.34277
 20
9.37681
 30
0.0
 10
10.53435
 20
9.72559
 30
0.0
 10
10.57719
 20
9.88464
 30
0.0
 10
10.67751
 20
10.25713
 30
0.0
 10
10.72965
 20
9.75589
 30
0.0
 10
10.85009
 20
9.75589
 30
0.0
 10
10.97848
 20
9.75589
 30
0.0
 10
10.92112
 20
9.55351
 30
0.0
 10
10.67664
 20
9.55351
 30
0.0
 10
10.37653
 20
9.55351
 30
0.0
 10
10.52926
 20
9.25304
 30
0.0
 10
10.8306
 20
9.39036
 30
0.0
 10
10.98357
 20
9.46014
 30
0.0
 10
11.10425
 20
9.17234
 30
0.0
 10
11.22929
 20
9.35088
 30
0.0
  0
SPLINE
  5
7F
330
1F
100
AcDbEntity
  8
Plan 1
 62
   250
370
    20
100
AcDbSpline
210
0.0
220
0.0
230
1.0
 70
    11
 71
     3
 72
    44
 73
    40
 74
     0
 42
0.0000000001
 43
0.0000000001
 40
0.0
 40
0.0
 40
0.0
 40
0.0
 40
0.0769230769230769
 40
0.0769230769230769
 40
0.0769230769230769
 40
0.1538461538461539
 40
0.1538461538461539
 40
0.1538461538461539
 40
0.2307692307692308
 40
0.2307692307692308
 40
0.2307692307692308
 40
0.3076923076923077
 40
0.3076923076923077
 40
0.3076923076923077
 40
0.3846153846153846
 40
0.3846153846153846
 40
0.3846153846153846
 40
0.4615384615384616
 40
0.4615384615384616
 40
0.4615384615384616
 40
0.5384615384615385
 40
0.5384615384615385
 40
0.5384615384615385
 40
0.6153846153846154
 40
0.6153846153846154
 40
0.6153846153846154
 40
0.6923076923076923
 40
0.6923076923076923
 40
0.6923076923076923
 40
0.7692307692307693
 40
0.7692307692307693
 40
0.7692307692307693
 40
0.8461538461538463
 40
0.8461538461538463
 40
0.8461538461538463
 40
0.9230769230769231
 40
0.9230769230769231
 40
0.9230769230769231
 40
1.0
 40
1.0
 40
1.0
 40
1.0
 10
11.69627
 20
5.78517
 30
0.0
 10
11.53523
 20
6.10986
 30
0.0
 10
11.84712
 20
6.38276
 30
0.0
 10
11.93664
 20
6.38276
 30
0.0
 10
12.1034
 20
6.38276
 30
0.0
 10
12.09929
 20
6.06131
 30
0.0
 10
12.49252
 20
6.25164
 30
0.0
 10
12.85768
 20
6.42833
 30
0.0
 10
12.35246
 20
6.35184
 30
0.0
 10
12.37308
 20
6.49215
 30
0.0
 10
12.39183
 20
6.61893
 30
0.0
 10
12.68721
 20
6.50742
 30
0.0
 10
12.68721
 20
6.64897
 30
0.0
 10
12.68721
 20
6.97241
 30
0.0
 10
12.05784
 20
6.74731
 30
0.0
 10
12.30989
 20
6.98409
 30
0.0
 10
12.52345
 20
7.18474
 30
0.0
 10
12.72173
 20
6.88874
 30
0.0
 10
12.82864
 20
6.88874
 30
0.0
 10
12.89395
 20
6.88874
 30
0.0
 10
12.88824
 20
6.53884
 30
0.0
 10
12.82206
 20
6.48396
 30
0.0
 10
12.73428
 20
6.41107
 30
0.0
 10
12.75998
 20
6.34837
 30
0.0
 10
12.86849
 20
6.3701
 30
0.0
 10
13.02965
 20
6.40238
 30
0.0
 10
13.10875
 20
6.33583
 30
0.0
 10
13.10875
 20
6.16809
 30
0.0
 10
13.10875
 20
5.93789
 30
0.0
 10
13.70001
 20
5.19241
 30
0.0
 10
13.00481
 20
5.1456
 30
0.0
 10
12.54455
 20
5.11481
 30
0.0
 10
12.55733
 20
5.46644
 30
0.0
 10
12.68473
 20
5.41752
 30
0.0
 10
12.79996
 20
5.37331
 30
0.0
 10
12.75874
 20
5.70806
 30
0.0
 10
12.4898
 20
5.4719
 30
0.0
 10
12.21862
 20
5.23376
 30
0.0
 10
11.85421
 20
5.46682
 30
0.0
 10
11.69627
 20
5.78517
 30
0.0
  0
SPLINE
  5
80
330
1F
100
AcDbEntity
  8
Plan 1
 62
   250
370
    20
100
AcDbSpline
210
0.0
220
0.0
230
1.0
 70
    11
 71
     3
 72
   155
 73
   151
 74
     0
 42
0.0000000001
 43
0.0000000001
 40
0.0
 40
0.0
 40
0.0
 40
0.0
 40
0.02
 40
0.02
 40
0.02
 40
0.04
 40
0.04
 40
0.04
 40
0.06
 40
0.06
 40
0.06
 40
0.08
 40
0.08
 40
0.08
 40
0.1
 40
0.1
 40
0.1
 40
0.12
 40
0.12
 40
0.12
 40
0.14
 40
0.14
 40
0.14
 40
0.16
 40
0.16
 40
0.16
 40
0.18
 40
0.18
 40
0.18
 40
0.2
 40
0.2
 40
0.2
 40
0.22
 40
0.22
 40
0.22
 40
0.24
 40
0.24
 40
0.24
 40
0.26
 40
0.26
 40
0.26
 40
0.28
 40
0.28
 40
0.28
 40
0.3
 40
0.3
 40
0.3
 40
0.32
 40
0.32
 40
0.32
 40
0.34
 40
0.34
 40
0.34
 40
0.36
 40
0.36
 40
0.36
 40
0.38
 40
0.38
 40
0.38
 40
0.4
 40
0.4
 40
0.4
 40
0.42
 40
0.42
 40
0.42
 40
0.44
 40
0.44
 40
0.44
 40
0.46
 40
0.46
 40
0.46
 40
0.48
 40
0.48
 40
0.48
 40
0.5
 40
0.5
 40
0.5
 40
0.52
 40
0.52
 40
0.52
 40
0.54
 40
0.54
 40
0.54
 40
0.56
 40
0.56
 40
0.56
 40
0.58
 40
0.58
 40
0.58
 40
0.6
 40
0.6
 40
0.6
 40
0.62
 40
0.62
 40
0.62
 40
0.64
 40
0.64
 40
0.64
 40
0.66
 40
0.66
 40
0.66
 40
0.68
 40
0.68
 40
0.68
 40
0.7000000000000001
 40
0.7000000000000001
 40
0.7000000000000001
 40
0.72
 40
0.72
 40
0.72
 40
0.74
 40
0.74
 40
0.74
 40
0.76
 40
0.76
 40
0.76
 40
0.78
 40
0.78
 40
0.78
 40
0.8
 40
0.8
 40
0.8
 40
0.8200000000000001
 40
0.8200000000000001
 40
0.8200000000000001
 40
0.84
 40
0.84
 40
0.84
 40
0.86
 40
0.86
 40
0.86
 40
0.88
 40
0.88
 40
0.88
 40
0.9
 40
0.9
 40
0.9
 40
0.92
 40
0.92
 40
0.92
 40
0.9400000000000001
 40
0.9400000000000001
 40
0.9400000000000001
 40
0.96
 40
0.96
 40
0.96
 40
0.98
 40
0.98
 40
0.98
 40
1.0
 40
1.0
 40
1.0
 40
1.0
 10
2.51866
 20
5.79882
 30
0.0
 10
2.55685
 20
5.64704
 30
0.0
 10
2.54996
 20
5.20497
 30
0.0
 10
2.51136
 20
5.31989
 30
0.0
 10
2.37267
 20
5.73571
 30
0.0
 10
1.97894
 20
6.90805
 30
0.0
 10
1.7783
 20
7.14148
 30
0.0
 10
1.74639
 20
7.1786
 30
0.0
 10
1.70256
 20
7.25074
 30
0.0
 10
1.68083
 20
7.30177
 30
0.0
 10
1.62719
 20
7.42792
 30
0.0
 10
1.62334
 20
7.34598
 30
0.0
 10
1.44057
 20
7.52104
 30
0.0
 10
1.12794
 20
7.82064
 30
0.0
 10
0.50252
 20
8.13204
 30
0.0
 10
0.72081
 20
8.46517
 30
0.0
 10
1.08944
 20
9.02789
 30
0.0
 10
0.50513
 20
8.90447
 30
0.0
 10
0.44094
 20
8.56203
 30
0.0
 10
0.37762
 20
8.22443
 30
0.0
 10
0.2907
 20
8.68631
 30
0.0
 10
0.2907
 20
8.8897
 30
0.0
 10
0.2907
 20
9.05507
 30
0.0
 10
0.27928
 20
9.08202
 30
0.0
 10
0.15574
 20
9.20804
 30
0.0
 10
-0.30417
 20
9.67726
 30
0.0
 10
0.6617
 20
10.09729
 30
0.0
 10
0.6617
 20
10.72618
 30
0.0
 10
0.6617
 20
10.7658
 30
0.0
 10
0.68492
 20
10.81124
 30
0.0
 10
0.71335
 20
10.82713
 30
0.0
 10
0.77805
 20
10.86339
 30
0.0
 10
0.84882
 20
11.39083
 30
0.0
 10
1.03307
 20
11.59074
 30
0.0
 10
1.15028
 20
11.71788
 30
0.0
 10
1.16145
 20
11.74296
 30
0.0
 10
1.11738
 20
11.77958
 30
0.0
 10
1.01383
 20
11.8655
 30
0.0
 10
0.99359
 20
11.68074
 30
0.0
 10
0.92952
 20
11.78194
 30
0.0
 10
0.88171
 20
11.85756
 30
0.0
 10
0.89462
 20
12.12687
 30
0.0
 10
0.9495
 20
12.1995
 30
0.0
 10
1.1329
 20
12.44199
 30
0.0
 10
0.6956
 20
12.53437
 30
0.0
 10
0.6956
 20
11.91306
 30
0.0
 10
0.69546
 20
11.71663
 30
0.0
 10
0.56758
 20
11.17268
 30
0.0
 10
0.3909
 20
11.17268
 30
0.0
 10
0.32074
 20
11.17268
 30
0.0
 10
0.09813
 20
11.84738
 30
0.0
 10
-0.1872
 20
11.84738
 30
0.0
 10
-0.58638
 20
11.84738
 30
0.0
 10
0.34148
 20
11.25872
 30
0.0
 10
0.18715
 20
10.48233
 30
0.0
 10
0.09912
 20
10.03933
 30
0.0
 10
-0.04627
 20
10.50109
 30
0.0
 10
-0.04739
 20
10.67417
 30
0.0
 10
-0.04851
 20
10.83658
 30
0.0
 10
-0.17963
 20
10.9179
 30
0.0
 10
-0.18087
 20
11.01251
 30
0.0
 10
-0.18187
 20
11.09236
 30
0.0
 10
-0.23228
 20
11.08676
 30
0.0
 10
-0.31522
 20
10.99774
 30
0.0
 10
-0.5525
 20
10.74297
 30
0.0
 10
-0.12587
 20
10.53648
 30
0.0
 10
-0.15629
 20
10.21937
 30
0.0
 10
-0.21776
 20
9.58006
 30
0.0
 10
-0.54964
 20
10.49501
 30
0.0
 10
-0.59558
 20
10.85235
 30
0.0
 10
-0.66908
 20
11.4235
 30
0.0
 10
-0.6296
 20
12.36814
 30
0.0
 10
-0.52369
 20
12.57275
 30
0.0
 10
-0.43405
 20
12.74596
 30
0.0
 10
-0.46757
 20
13.0113
 30
0.0
 10
-0.38401
 20
13.0113
 30
0.0
 10
-0.21949
 20
13.0113
 30
0.0
 10
-0.4734
 20
12.52073
 30
0.0
 10
-0.14326
 20
12.71579
 30
0.0
 10
0.00908
 20
12.80568
 30
0.0
 10
0.13499
 20
12.70486
 30
0.0
 10
-0.19268
 20
12.42959
 30
0.0
 10
-0.35322
 20
12.29487
 30
0.0
 10
-0.21353
 20
12.21206
 30
0.0
 10
-0.37023
 20
12.06691
 30
0.0
 10
-0.54543
 20
11.9045
 30
0.0
 10
-0.34031
 20
11.84454
 30
0.0
 10
-0.16264
 20
12.03302
 30
0.0
 10
0.27975
 20
12.50197
 30
0.0
 10
0.22587
 20
11.1902
 30
0.0
 10
0.51281
 20
11.62799
 30
0.0
 10
0.63945
 20
11.82131
 30
0.0
 10
0.41198
 20
12.11732
 30
0.0
 10
0.53962
 20
12.11732
 30
0.0
 10
0.61449
 20
12.11732
 30
0.0
 10
0.57167
 20
12.20759
 30
0.0
 10
0.65063
 20
12.34516
 30
0.0
 10
0.73232
 20
12.48758
 30
0.0
 10
0.58258
 20
12.71963
 30
0.0
 10
0.63262
 20
12.79848
 30
0.0
 10
0.73046
 20
12.95269
 30
0.0
 10
0.44501
 20
13.16302
 30
0.0
 10
0.6104
 20
13.16302
 30
0.0
 10
0.63151
 20
13.16302
 30
0.0
 10
0.89138
 20
12.71553
 30
0.0
 10
1.29255
 20
12.4127
 30
0.0
 10
1.53479
 20
12.22993
 30
0.0
 10
1.41809
 20
12.27847
 30
0.0
 10
1.55864
 20
12.07175
 30
0.0
 10
1.64294
 20
11.94759
 30
0.0
 10
1.64455
 20
11.93566
 30
0.0
 10
1.60557
 20
11.73502
 30
0.0
 10
1.53443
 20
11.36899
 30
0.0
 10
1.67348
 20
11.27277
 30
0.0
 10
1.67348
 20
10.85297
 30
0.0
 10
1.67348
 20
10.58429
 30
0.0
 10
1.68715
 20
10.54977
 30
0.0
 10
1.82856
 20
10.46236
 30
0.0
 10
2.02015
 20
10.34391
 30
0.0
 10
1.87588
 20
10.29574
 30
0.0
 10
2.05926
 20
10.29574
 30
0.0
 10
2.29207
 20
10.29574
 30
0.0
 10
2.80636
 20
9.96497
 30
0.0
 10
3.03953
 20
9.76097
 30
0.0
 10
3.03953
 20
9.76097
 30
0.0
 10
2.18057
 20
9.77277
 30
0.0
 10
2.18057
 20
9.77277
 30
0.0
 10
2.07206
 20
10.035
 30
0.0
 10
1.45882
 20
10.59993
 30
0.0
 10
1.81281
 20
9.97254
 30
0.0
 10
2.08696
 20
9.48682
 30
0.0
 10
1.60185
 20
9.89097
 30
0.0
 10
1.36942
 20
9.89097
 30
0.0
 10
1.16989
 20
9.89097
 30
0.0
 10
0.98105
 20
10.10689
 30
0.0
 10
0.94516
 20
10.01339
 30
0.0
 10
0.84819
 20
9.76072
 30
0.0
 10
1.42218
 20
9.7241
 30
0.0
 10
1.60856
 20
9.5684
 30
0.0
 10
2.02549
 20
9.22001
 30
0.0
 10
2.24477
 20
9.55301
 30
0.0
 10
2.74204
 20
9.31076
 30
0.0
 10
3.0682
 20
9.15184
 30
0.0
 10
3.35242
 20
7.83473
 30
0.0
 10
3.09714
 20
7.4708
 30
0.0
 10
2.99905
 20
7.33087
 30
0.0
 10
2.98278
 20
7.16039
 30
0.0
 10
2.88283
 20
7.07
 30
0.0
 10
2.61588
 20
6.82875
 30
0.0
 10
2.42466
 20
6.17193
 30
0.0
 10
2.51866
 20
5.79882
 30
0.0
  0
SPLINE
  5
81
330
1F
100
AcDbEntity
  8
Plan 1
 62
   250
370
    20
100
AcDbSpline
210
0.0
220
0.0
230
1.0
 70
    11
 71
     3
 72
    95
 73
    91
 74
     0
 42
0.0000000001
 43
0.0000000001
 40
0.0
 40
0.0
 40
0.0
 40
0.0
 40
0.0333333333333333
 40
0.0333333333333333
 40
0.0333333333333333
 40
0.0666666666666667
 40
0.0666666666666667
 40
0.0666666666666667
 40
0.1
 40
0.1
 40
0.1
 40
0.1333333333333333
 40
0.1333333333333333
 40
0.1333333333333333
 40
0.1666666666666667
 40
0.1666666666666667
 40
0.1666666666666667
 40
0.2
 40
0.2
 40
0.2
 40
0.2333333333333333
 40
0.2333333333333333
 40
0.2333333333333333
 40
0.2666666666666667
 40
0.2666666666666667
 40
0.2666666666666667
 40
0.3
 40
0.3
 40
0.3
 40
0.3333333333333333
 40
0.3333333333333333
 40
0.3333333333333333
 40
0.3666666666666666
 40
0.3666666666666666
 40
0.3666666666666666
 40
0.4
 40
0.4
 40
0.4
 40
0.4333333333333333
 40
0.4333333333333333
 40
0.4333333333333333
 40
0.4666666666666667
 40
0.4666666666666667
 40
0.4666666666666667
 40
0.5
 40
0.5
 40
0.5
 40
0.5333333333333333
 40
0.5333333333333333
 40
0.5333333333333333
 40
0.5666666666666667
 40
0.5666666666666667
 40
0.5666666666666667
 40
0.6
 40
0.6
 40
0.6
 40
0.6333333333333333
 40
0.6333333333333333
 40
0.6333333333333333
 40
0.6666666666666666
 40
0.6666666666666666
 40
0.6666666666666666
 40
0.7
 40
0.7
 40
0.7
 40
0.7333333333333333
 40
0.7333333333333333
 40
0.7333333333333333
 40
0.7666666666666666
 40
0.7666666666666666
 40
0.7666666666666666
 40
0.8
 40
0.8
 40
0.8
 40
0.8333333333333334
 40
0.8333333333333334
 40
0.8333333333333334
 40
0.8666666666666667
 40
0.8666666666666667
 40
0.8666666666666667
 40
0.9
 40
0.9
 40
0.9
 40
0.9333333333333333
 40
0.9333333333333333
 40
0.9333333333333333
 40
0.9666666666666667
 40
0.9666666666666667
 40
0.9666666666666667
 40
1.0
 40
1.0
 40
1.0
 40
1.0
 10
4.1906
 20
-3.29945
 30
0.0
 10
4.13995
 20
-2.98271
 30
0.0
 10
4.6315
 20
-3.16175
 30
0.0
 10
4.76672
 20
-3.30876
 30
0.0
 10
5.27466
 20
-3.86104
 30
0.0
 10
4.52957
 20
-3.84527
 30
0.0
 10
4.76498
 20
-4.24756
 30
0.0
 10
4.84941
 20
-4.39184
 30
0.0
 10
4.89299
 20
-4.37545
 30
0.0
 10
4.90516
 20
-4.19479
 30
0.0
 10
4.93297
 20
-3.78455
 30
0.0
 10
5.32185
 20
-4.05684
 30
0.0
 10
5.21035
 20
-3.41678
 30
0.0
 10
5.17534
 20
-3.21564
 30
0.0
 10
5.56384
 20
-3.42287
 30
0.0
 10
5.63511
 20
-3.64338
 30
0.0
 10
5.66602
 20
-3.7391
 30
0.0
 10
5.69819
 20
-3.76319
 30
0.0
 10
5.87288
 20
-3.82155
 30
0.0
 10
6.42876
 20
-4.00717
 30
0.0
 10
6.39387
 20
-4.41654
 30
0.0
 10
6.46005
 20
-4.86514
 30
0.0
 10
5.63946
 20
-5.63818
 30
0.0
 10
5.95074
 20
-5.68077
 30
0.0
 10
5.76139
 20
-6.14067
 30
0.0
 10
5.73197
 20
-6.21219
 30
0.0
 10
5.73258
 20
-6.23329
 30
0.0
 10
5.7645
 20
-6.23292
 30
0.0
 10
5.98278
 20
-6.23019
 30
0.0
 10
5.98141
 20
-5.49764
 30
0.0
 10
6.12494
 20
-5.64625
 30
0.0
 10
6.18604
 20
-5.70957
 30
0.0
 10
6.17102
 20
-6.03265
 30
0.0
 10
6.3133
 20
-6.15756
 30
0.0
 10
6.60199
 20
-6.41073
 30
0.0
 10
6.38185
 20
-5.9646
 30
0.0
 10
6.285
 20
-5.34466
 30
0.0
 10
6.65786
 20
-5.01153
 30
0.0
 10
6.5645
 20
-5.13358
 30
0.0
 10
6.84088
 20
-5.2313
 30
0.0
 10
6.95995
 20
-5.27339
 30
0.0
 10
6.7752
 20
-5.35099
 30
0.0
 10
6.86584
 20
-5.56716
 30
0.0
 10
7.02501
 20
-5.94685
 30
0.0
 10
6.85107
 20
-5.94226
 30
0.0
 10
6.82871
 20
-6.21455
 30
0.0
 10
6.80935
 20
-6.45119
 30
0.0
 10
6.2392
 20
-6.66848
 30
0.0
 10
6.34747
 20
-6.84367
 30
0.0
 10
6.39266
 20
-6.91693
 30
0.0
 10
6.83628
 20
-6.3798
 30
0.0
 10
6.83418
 20
-6.71305
 30
0.0
 10
6.83344
 20
-6.82232
 30
0.0
 10
6.51434
 20
-7.42836
 30
0.0
 10
6.48104
 20
-7.5796
 30
0.0
 10
6.39486
 20
-7.97207
 30
0.0
 10
6.32111
 20
-6.9604
 30
0.0
 10
5.88518
 20
-6.82208
 30
0.0
 10
5.74996
 20
-6.77911
 30
0.0
 10
5.89834
 20
-6.51986
 30
0.0
 10
5.45619
 20
-6.13074
 30
0.0
 10
5.1664
 20
-5.87558
 30
0.0
 10
5.26051
 20
-6.00173
 30
0.0
 10
5.19856
 20
-5.10329
 30
0.0
 10
5.44912
 20
-5.05487
 30
0.0
 10
5.52138
 20
-5.0124
 30
0.0
 10
5.72824
 20
-5.1609
 30
0.0
 10
5.85898
 20
-5.25477
 30
0.0
 10
5.84483
 20
-5.05412
 30
0.0
 10
5.70961
 20
-4.89693
 30
0.0
 10
5.63996
 20
-4.8161
 30
0.0
 10
5.59998
 20
-4.80319
 30
0.0
 10
5.36407
 20
-4.78568
 30
0.0
 10
4.96823
 20
-4.75637
 30
0.0
 10
4.95755
 20
-4.63048
 30
0.0
 10
4.60816
 20
-4.46832
 30
0.0
 10
4.00634
 20
-4.18883
 30
0.0
 10
4.1053
 20
-3.90139
 30
0.0
 10
3.97344
 20
-3.95888
 30
0.0
 10
3.73567
 20
-4.06255
 30
0.0
 10
3.52881
 20
-3.95863
 30
0.0
 10
3.52881
 20
-3.73563
 30
0.0
 10
3.52881
 20
-3.44248
 30
0.0
 10
3.23145
 20
-3.2386
 30
0.0
 10
3.55117
 20
-3.18584
 30
0.0
 10
3.80831
 20
-3.14337
 30
0.0
 10
3.86245
 20
-3.15715
 30
0.0
 10
3.99716
 20
-3.2987
 30
0.0
 10
4.16516
 20
-3.47526
 30
0.0
 10
4.21879
 20
-3.47551
 30
0.0
 10
4.1906
 20
-3.29945
 30
0.0
  0
SPLINE
  5
82
330
1F
100
AcDbEntity
  8
Plan 1
 62
   250
370
    20
100
AcDbSpline
210
0.0
220
0.0
230
1.0
 70
    11
 71
     3
 72
    80
 73
    76
 74
     0
 42
0.0000000001
 43
0.0000000001
 40
0.0
 40
0.0
 40
0.0
 40
0.0
 40
0.04
 40
0.04
 40
0.04
 40
0.08
 40
0.08
 40
0.08
 40
0.12
 40
0.12
 40
0.12
 40
0.16
 40
0.16
 40
0.16
 40
0.2
 40
0.2
 40
0.2
 40
0.24
 40
0.24
 40
0.24
 40
0.28
 40
0.28
 40
0.28
 40
0.32
 40
0.32
 40
0.32
 40
0.36
 40
0.36
 40
0.36
 40
0.4
 40
0.4
 40
0.4
 40
0.44
 40
0.44
 40
0.44
 40
0.48
 40
0.48
 40
0.48
 40
0.52
 40
0.52
 40
0.52
 40
0.56
 40
0.56
 40
0.56
 40
0.6
 40
0.6
 40
0.6
 40
0.64
 40
0.64
 40
0.64
 40
0.68
 40
0.68
 40
0.68
 40
0.72
 40
0.72
 40
0.72
 40
0.76
 40
0.76
 40
0.76
 40
0.8
 40
0.8
 40
0.8
 40
0.84
 40
0.84
 40
0.84
 40
0.88
 40
0.88
 40
0.88
 40
0.92
 40
0.92
 40
0.92
 40
0.96
 40
0.96
 40
0.96
 40
1.0
 40
1.0
 40
1.0
 40
1.0
 10
4.41127
 20
-4.80294
 30
0.0
 10
4.81269
 20
-5.02296
 30
0.0
 10
5.00377
 20
-5.33312
 30
0.0
 10
4.91674
 20
-5.62353
 30
0.0
 10
4.85825
 20
-5.81871
 30
0.0
 10
4.86869
 20
-5.90947
 30
0.0
 10
4.98329
 20
-6.19939
 30
0.0
 10
5.09143
 20
-6.47317
 30
0.0
 10
5.10049
 20
-6.42549
 30
0.0
 10
5.01557
 20
-6.7051
 30
0.0
 10
4.79753
 20
-7.42288
 30
0.0
 10
5.04673
 20
-7.7241
 30
0.0
 10
5.04673
 20
-7.20957
 30
0.0
 10
5.04673
 20
-6.9893
 30
0.0
 10
5.35031
 20
-6.97714
 30
0.0
 10
5.35031
 20
-6.53288
 30
0.0
 10
5.35031
 20
-6.329
 30
0.0
 10
5.51669
 20
-6.49265
 30
0.0
 10
5.55481
 20
-6.73415
 30
0.0
 10
5.59925
 20
-7.01575
 30
0.0
 10
5.90954
 20
-7.23317
 30
0.0
 10
5.68753
 20
-7.47615
 30
0.0
 10
5.54338
 20
-7.63395
 30
0.0
 10
5.57517
 20
-7.80977
 30
0.0
 10
5.70877
 20
-7.95268
 30
0.0
 10
5.77756
 20
-8.02618
 30
0.0
 10
5.71722
 20
-7.66599
 30
0.0
 10
5.84014
 20
-7.60999
 30
0.0
 10
5.97697
 20
-7.54767
 30
0.0
 10
5.93574
 20
-7.29884
 30
0.0
 10
6.10336
 20
-7.52333
 30
0.0
 10
6.28909
 20
-7.77214
 30
0.0
 10
5.48788
 20
-8.69605
 30
0.0
 10
5.14085
 20
-8.69605
 30
0.0
 10
5.05279
 20
-8.69605
 30
0.0
 10
4.75423
 20
-8.86461
 30
0.0
 10
4.70068
 20
-8.81106
 30
0.0
 10
4.5934
 20
-8.70378
 30
0.0
 10
3.84893
 20
-8.89139
 30
0.0
 10
3.77852
 20
-8.61078
 30
0.0
 10
3.74413
 20
-8.47358
 30
0.0
 10
3.78995
 20
-8.3735
 30
0.0
 10
3.92976
 20
-8.28101
 30
0.0
 10
4.35577
 20
-7.99915
 30
0.0
 10
4.35167
 20
-7.45917
 30
0.0
 10
4.68728
 20
-8.09724
 30
0.0
 10
5.03741
 20
-8.76312
 30
0.0
 10
5.6
 20
-8.35811
 30
0.0
 10
5.22316
 20
-8.28051
 30
0.0
 10
5.07404
 20
-8.24983
 30
0.0
 10
4.94566
 20
-7.91434
 30
0.0
 10
4.94566
 20
-7.85872
 30
0.0
 10
4.94566
 20
-7.72252
 30
0.0
 10
4.6216
 20
-7.65907
 30
0.0
 10
4.63463
 20
-7.04322
 30
0.0
 10
4.65127
 20
-6.2574
 30
0.0
 10
4.27096
 20
-6.24435
 30
0.0
 10
4.27096
 20
-6.03651
 30
0.0
 10
4.27096
 20
-5.82716
 30
0.0
 10
3.77989
 20
-5.69915
 30
0.0
 10
4.23358
 20
-5.68897
 30
0.0
 10
4.43597
 20
-5.68438
 30
0.0
 10
4.44938
 20
-5.72299
 30
0.0
 10
4.57454
 20
-5.84058
 30
0.0
 10
4.57454
 20
-5.13421
 30
0.0
 10
3.87103
 20
-5.75961
 30
0.0
 10
3.51791
 20
-5.12043
 30
0.0
 10
3.3714
 20
-4.85533
 30
0.0
 10
3.27431
 20
-4.41456
 30
0.0
 10
3.35179
 20
-4.36663
 30
0.0
 10
3.39611
 20
-4.33918
 30
0.0
 10
3.55988
 20
-4.45764
 30
0.0
 10
3.82336
 20
-4.43007
 30
0.0
 10
4.17387
 20
-4.39345
 30
0.0
 10
3.89674
 20
-4.52096
 30
0.0
 10
4.41127
 20
-4.80294
 30
0.0
  0
SPLINE
  5
83
330
1F
100
AcDbEntity
  8
Plan 1
 62
   250
370
    20
100
AcDbSpline
210
0.0
220
0.0
230
1.0
 70
    11
 71
     3
 72
    32
 73
    28
 74
     0
 42
0.0000000001
 43
0.0000000001
 40
0.0
 40
0.0
 40
0.0
 40
0.0
 40
0.1111111111111111
 40
0.1111111111111111
 40
0.1111111111111111
 40
0.2222222222222222
 40
0.2222222222222222
 40
0.2222222222222222
 40
0.3333333333333333
 40
0.3333333333333333
 40
0.3333333333333333
 40
0.4444444444444444
 40
0.4444444444444444
 40
0.4444444444444444
 40
0.5555555555555556
 40
0.5555555555555556
 40
0.5555555555555556
 40
0.6666666666666666
 40
0.6666666666666666
 40
0.6666666666666666
 40
0.7777777777777777
 40
0.7777777777777777
 40
0.7777777777777777
 40
0.8888888888888888
 40
0.8888888888888888
 40
0.8888888888888888
 40
1.0
 40
1.0
 40
1.0
 40
1.0
 10
0.5816
 20
-6.3515
 30
0.0
 10
0.88269
 20
-5.77712
 30
0.0
 10
0.87115
 20
-6.02769
 30
0.0
 10
1.23507
 20
-5.7215
 30
0.0
 10
1.23345
 20
-6.22982
 30
0.0
 10
0.94329
 20
-6.51403
 30
0.0
 10
1.38915
 20
-7.39347
 30
0.0
 10
1.77087
 20
-8.14686
 30
0.0
 10
0.97298
 20
-6.87017
 30
0.0
 10
0.61686
 20
-6.69418
 30
0.0
 10
0.41682
 20
-6.59535
 30
0.0
 10
0.298
 20
-6.65531
 30
0.0
 10
0.14479
 20
-6.49216
 30
0.0
 10
0.02138
 20
-6.36092
 30
0.0
 10
-0.14798
 20
-6.01264
 30
0.0
 10
-0.14798
 20
-5.89022
 30
0.0
 10
-0.1481
 20
-5.66797
 30
0.0
 10
-0.46994
 20
-5.67393
 30
0.0
 10
-0.21366
 20
-5.16102
 30
0.0
 10
0.02362
 20
-4.6861
 30
0.0
 10
0.81553
 20
-3.99352
 30
0.0
 10
0.95161
 20
-4.74172
 30
0.0
 10
1.02835
 20
-5.16338
 30
0.0
 10
1.31206
 20
-5.30132
 30
0.0
 10
0.75531
 20
-5.73987
 30
0.0
 10
0.50946
 20
-5.93344
 30
0.0
 10
0.5122
 20
-6.11634
 30
0.0
 10
0.5816
 20
-6.3515
 30
0.0
  0
SPLINE
  5
84
330
1F
100
AcDbEntity
  8
Plan 1
 62
   250
370
    20
100
AcDbSpline
210
0.0
220
0.0
230
1.0
 70
    11
 71
     3
 72
    74
 73
    70
 74
     0
 42
0.0000000001
 43
0.0000000001
 40
0.0
 40
0.0
 40
0.0
 40
0.0
 40
0.0434782608695652
 40
0.0434782608695652
 40
0.0434782608695652
 40
0.0869565217391304
 40
0.0869565217391304
 40
0.0869565217391304
 40
0.1304347826086956
 40
0.1304347826086956
 40
0.1304347826086956
 40
0.1739130434782609
 40
0.1739130434782609
 40
0.1739130434782609
 40
0.2173913043478261
 40
0.2173913043478261
 40
0.2173913043478261
 40
0.2608695652173913
 40
0.2608695652173913
 40
0.2608695652173913
 40
0.3043478260869565
 40
0.3043478260869565
 40
0.3043478260869565
 40
0.3478260869565217
 40
0.3478260869565217
 40
0.3478260869565217
 40
0.3913043478260869
 40
0.3913043478260869
 40
0.3913043478260869
 40
0.4347826086956522
 40
0.4347826086956522
 40
0.4347826086956522
 40
0.4782608695652174
 40
0.4782608695652174
 40
0.4782608695652174
 40
0.5217391304347826
 40
0.5217391304347826
 40
0.5217391304347826
 40
0.5652173913043478
 40
0.5652173913043478
 40
0.5652173913043478
 40
0.6086956521739131
 40
0.6086956521739131
 40
0.6086956521739131
 40
0.6521739130434783
 40
0.6521739130434783
 40
0.6521739130434783
 40
0.6956521739130435
 40
0.6956521739130435
 40
0.6956521739130435
 40
0.7391304347826086
 40
0.7391304347826086
 40
0.7391304347826086
 40
0.7826086956521738
 40
0.7826086956521738
 40
0.7826086956521738
 40
0.8260869565217391
 40
0.8260869565217391
 40
0.8260869565217391
 40
0.8695652173913043
 40
0.8695652173913043
 40
0.8695652173913043
 40
0.9130434782608695
 40
0.9130434782608695
 40
0.9130434782608695
 40
0.9565217391304348
 40
0.9565217391304348
 40
0.9565217391304348
 40
1.0
 40
1.0
 40
1.0
 40
1.0
 10
-0.70585
 20
-5.54853
 30
0.0
 10
-0.58343
 20
-6.22273
 30
0.0
 10
-0.91221
 20
-6.28668
 30
0.0
 10
-1.29115
 20
-6.5879
 30
0.0
 10
-1.52558
 20
-6.77426
 30
0.0
 10
-1.62863
 20
-6.73553
 30
0.0
 10
-1.58393
 20
-6.47788
 30
0.0
 10
-1.41793
 20
-5.52282
 30
0.0
 10
-1.80867
 20
-5.78618
 30
0.0
 10
-1.58505
 20
-5.1702
 30
0.0
 10
-1.48796
 20
-4.90288
 30
0.0
 10
-1.47592
 20
-4.88823
 30
0.0
 10
-1.41781
 20
-4.96769
 30
0.0
 10
-1.33623
 20
-5.07918
 30
0.0
 10
-1.32134
 20
-4.96111
 30
0.0
 10
-1.39571
 20
-4.79287
 30
0.0
 10
-1.49615
 20
-4.56577
 30
0.0
 10
-1.51328
 20
-4.16683
 30
0.0
 10
-1.58629
 20
-4.05534
 30
0.0
 10
-1.69108
 20
-3.89543
 30
0.0
 10
-1.62317
 20
-3.56639
 30
0.0
 10
-1.4692
 20
-3.4878
 30
0.0
 10
-1.35634
 20
-3.43019
 30
0.0
 10
-1.05898
 20
-3.36625
 30
0.0
 10
-0.90402
 20
-3.36625
 30
0.0
 10
-0.78556
 20
-3.36625
 30
0.0
 10
-0.48534
 20
-3.17877
 30
0.0
 10
-0.48534
 20
-3.28157
 30
0.0
 10
-0.48534
 20
-3.34862
 30
0.0
 10
-0.83188
 20
-3.65605
 30
0.0
 10
-0.90724
 20
-4.03251
 30
0.0
 10
-0.95902
 20
-4.29101
 30
0.0
 10
-0.75514
 20
-4.02705
 30
0.0
 10
-0.75514
 20
-3.87917
 30
0.0
 10
-0.75514
 20
-3.8439
 30
0.0
 10
-0.72385
 20
-3.78691
 30
0.0
 10
-0.6856
 20
-3.75227
 30
0.0
 10
-0.53884
 20
-3.61955
 30
0.0
 10
-0.57273
 20
-3.88413
 30
0.0
 10
-0.48023
 20
-4.01413
 30
0.0
 10
-0.38798
 20
-4.14363
 30
0.0
 10
-0.34056
 20
-4.08019
 30
0.0
 10
-0.38525
 20
-3.88724
 30
0.0
 10
-0.47626
 20
-3.49501
 30
0.0
 10
-0.30156
 20
-3.30305
 30
0.0
 10
-0.02009
 20
-2.97824
 30
0.0
 10
1.20888
 20
-3.00531
 30
0.0
 10
0.72911
 20
-3.12525
 30
0.0
 10
0.72911
 20
-3.41269
 30
0.0
 10
0.72911
 20
-3.49402
 30
0.0
 10
0.60297
 20
-3.49539
 30
0.0
 10
0.48216
 20
-3.75042
 30
0.0
 10
0.19285
 20
-4.36167
 30
0.0
 10
-0.4775
 20
-4.0278
 30
0.0
 10
-0.61582
 20
-4.33137
 30
0.0
 10
-0.73576
 20
-4.59459
 30
0.0
 10
-0.43591
 20
-4.20808
 30
0.0
 10
-0.23017
 20
-4.35856
 30
0.0
 10
-0.13953
 20
-4.42487
 30
0.0
 10
-0.25575
 20
-4.4379
 30
0.0
 10
-0.35843
 20
-4.68225
 30
0.0
 10
-0.50594
 20
-5.03326
 30
0.0
 10
-1.05872
 20
-5.21292
 30
0.0
 10
-1.05872
 20
-5.48335
 30
0.0
 10
-1.05872
 20
-5.53774
 30
0.0
 10
-1.17754
 20
-5.62415
 30
0.0
 10
-1.21156
 20
-5.80543
 30
0.0
 10
-1.29625
 20
-6.25713
 30
0.0
 10
-0.78556
 20
-5.10974
 30
0.0
 10
-0.70585
 20
-5.54853
 30
0.0
  0
SPLINE
  5
85
330
1F
100
AcDbEntity
  8
Plan 1
 62
   250
370
    20
100
AcDbSpline
210
0.0
220
0.0
230
1.0
 70
    11
 71
     3
 72
    23
 73
    19
 74
     0
 42
0.0000000001
 43
0.0000000001
 40
0.0
 40
0.0
 40
0.0
 40
0.0
 40
0.1666666666666667
 40
0.1666666666666667
 40
0.1666666666666667
 40
0.3333333333333333
 40
0.3333333333333333
 40
0.3333333333333333
 40
0.5
 40
0.5
 40
0.5
 40
0.6666666666666666
 40
0.6666666666666666
 40
0.6666666666666666
 40
0.8333333333333333
 40
0.8333333333333333
 40
0.8333333333333333
 40
1.0
 40
1.0
 40
1.0
 40
1.0
 10
7.23717
 20
-7.85168
 30
0.0
 10
7.44568
 20
-6.99197
 30
0.0
 10
7.60341
 20
-7.73155
 30
0.0
 10
7.59729
 20
-7.73603
 30
0.0
 10
7.50666
 20
-7.80234
 30
0.0
 10
7.59518
 20
-7.85709
 30
0.0
 10
7.43339
 20
-7.94252
 30
0.0
 10
7.22617
 20
-8.05193
 30
0.0
 10
6.85371
 20
-7.94473
 30
0.0
 10
6.5927
 20
-8.03067
 30
0.0
 10
6.69289
 20
-7.83287
 30
0.0
 10
6.77137
 20
-7.69841
 30
0.0
 10
6.79583
 20
-7.45442
 30
0.0
 10
6.82587
 20
-7.15532
 30
0.0
 10
6.9519
 20
-7.08418
 30
0.0
 10
7.08686
 20
-7.29004
 30
0.0
 10
7.19972
 20
-7.46224
 30
0.0
 10
6.89125
 20
-7.4731
 30
0.0
 10
7.23717
 20
-7.85168
 30
0.0
  0
SPLINE
  5
86
330
1F
100
AcDbEntity
  8
Plan 1
 62
   250
370
    20
100
AcDbSpline
210
0.0
220
0.0
230
1.0
 70
    11
 71
     3
 72
    29
 73
    25
 74
     0
 42
0.0000000001
 43
0.0000000001
 40
0.0
 40
0.0
 40
0.0
 40
0.0
 40
0.125
 40
0.125
 40
0.125
 40
0.25
 40
0.25
 40
0.25
 40
0.375
 40
0.375
 40
0.375
 40
0.5
 40
0.5
 40
0.5
 40
0.625
 40
0.625
 40
0.625
 40
0.75
 40
0.75
 40
0.75
 40
0.875
 40
0.875
 40
0.875
 40
1.0
 40
1.0
 40
1.0
 40
1.0
 10
6.73834
 20
-4.46197
 30
0.0
 10
6.54625
 20
-3.67155
 30
0.0
 10
5.98579
 20
-3.44334
 30
0.0
 10
7.08773
 20
-3.72506
 30
0.0
 10
7.10412
 20
-3.89244
 30
0.0
 10
7.11914
 20
-4.10885
 30
0.0
 10
7.18557
 20
-4.24841
 30
0.0
 10
7.24567
 20
-4.37482
 30
0.0
 10
7.36213
 20
-4.5027
 30
0.0
 10
7.39094
 20
-4.4739
 30
0.0
 10
7.42372
 20
-4.44112
 30
0.0
 10
7.30514
 20
-4.0885
 30
0.0
 10
7.44756
 20
-3.80305
 30
0.0
 10
7.60065
 20
-3.93118
 30
0.0
 10
8.28094
 20
-4.52133
 30
0.0
 10
8.04503
 20
-4.66722
 30
0.0
 10
7.98294
 20
-4.70571
 30
0.0
 10
8.08004
 20
-4.80691
 30
0.0
 10
7.89888
 20
-4.89332
 30
0.0
 10
7.54477
 20
-5.06219
 30
0.0
 10
7.7279
 20
-5.61682
 30
0.0
 10
7.45749
 20
-5.24432
 30
0.0
 10
7.09282
 20
-4.74159
 30
0.0
 10
6.90236
 20
-5.13704
 30
0.0
 10
6.73834
 20
-4.46197
 30
0.0
  0
SPLINE
  5
87
330
1F
100
AcDbEntity
  8
Plan 1
 62
   250
370
    20
100
AcDbSpline
210
0.0
220
0.0
230
1.0
 70
    11
 71
     3
 72
    59
 73
    55
 74
     0
 42
0.0000000001
 43
0.0000000001
 40
0.0
 40
0.0
 40
0.0
 40
0.0
 40
0.0555555555555556
 40
0.0555555555555556
 40
0.0555555555555556
 40
0.1111111111111111
 40
0.1111111111111111
 40
0.1111111111111111
 40
0.1666666666666667
 40
0.1666666666666667
 40
0.1666666666666667
 40
0.2222222222222222
 40
0.2222222222222222
 40
0.2222222222222222
 40
0.2777777777777778
 40
0.2777777777777778
 40
0.2777777777777778
 40
0.3333333333333333
 40
0.3333333333333333
 40
0.3333333333333333
 40
0.3888888888888888
 40
0.3888888888888888
 40
0.3888888888888888
 40
0.4444444444444444
 40
0.4444444444444444
 40
0.4444444444444444
 40
0.5
 40
0.5
 40
0.5
 40
0.5555555555555556
 40
0.5555555555555556
 40
0.5555555555555556
 40
0.611111111111111
 40
0.611111111111111
 40
0.611111111111111
 40
0.6666666666666666
 40
0.6666666666666666
 40
0.6666666666666666
 40
0.7222222222222222
 40
0.7222222222222222
 40
0.7222222222222222
 40
0.7777777777777777
 40
0.7777777777777777
 40
0.7777777777777777
 40
0.8333333333333333
 40
0.8333333333333333
 40
0.8333333333333333
 40
0.8888888888888888
 40
0.8888888888888888
 40
0.8888888888888888
 40
0.9444444444444444
 40
0.9444444444444444
 40
0.9444444444444444
 40
1.0
 40
1.0
 40
1.0
 40
1.0
 10
7.84523
 20
-5.9091
 30
0.0
 10
8.13925
 20
-5.95615
 30
0.0
 10
8.20852
 20
-6.0571
 30
0.0
 10
8.13676
 20
-6.33386
 30
0.0
 10
8.04537
 20
-6.68611
 30
0.0
 10
7.6781
 20
-6.80518
 30
0.0
 10
7.6781
 20
-7.05723
 30
0.0
 10
7.6781
 20
-7.19617
 30
0.0
 10
7.72814
 20
-7.21864
 30
0.0
 10
7.75943
 20
-7.09386
 30
0.0
 10
7.77892
 20
-7.01613
 30
0.0
 10
8.07083
 20
-6.79822
 30
0.0
 10
8.14682
 20
-6.68908
 30
0.0
 10
8.15477
 20
-7.07077
 30
0.0
 10
8.58884
 20
-7.19865
 30
0.0
 10
8.58884
 20
-7.09733
 30
0.0
 10
8.58884
 20
-6.93828
 30
0.0
 10
8.22294
 20
-6.89159
 30
0.0
 10
8.34039
 20
-6.55834
 30
0.0
 10
8.43365
 20
-6.29363
 30
0.0
 10
8.33344
 20
-6.19268
 30
0.0
 10
8.4591
 20
-6.28071
 30
0.0
 10
8.59182
 20
-6.37371
 30
0.0
 10
8.54725
 20
-6.22881
 30
0.0
 10
8.77509
 20
-6.33658
 30
0.0
 10
9.03695
 20
-6.46038
 30
0.0
 10
9.29844
 20
-6.31275
 30
0.0
 10
9.46419
 20
-6.63284
 30
0.0
 10
9.52467
 20
-6.74955
 30
0.0
 10
9.47562
 20
-6.76631
 30
0.0
 10
9.3789
 20
-6.66202
 30
0.0
 10
9.25735
 20
-6.53078
 30
0.0
 10
9.15752
 20
-6.56641
 30
0.0
 10
9.23065
 20
-6.75887
 30
0.0
 10
9.28552
 20
-6.90315
 30
0.0
 10
9.27087
 20
-6.93221
 30
0.0
 10
9.06241
 20
-7.09262
 30
0.0
 10
8.80464
 20
-7.29094
 30
0.0
 10
8.54067
 20
-7.41335
 30
0.0
 10
8.36943
 20
-7.41396
 30
0.0
 10
8.18319
 20
-7.41446
 30
0.0
 10
8.06089
 20
-7.48324
 30
0.0
 10
7.95213
 20
-7.44301
 30
0.0
 10
7.57082
 20
-7.30196
 30
0.0
 10
7.52873
 20
-7.11212
 30
0.0
 10
7.13402
 20
-7.00584
 30
0.0
 10
7.16767
 20
-6.57685
 30
0.0
 10
7.23906
 20
-6.14092
 30
0.0
 10
7.20815
 20
-5.71938
 30
0.0
 10
7.18965
 20
-5.46721
 30
0.0
 10
7.21112
 20
-5.38277
 30
0.0
 10
7.25707
 20
-5.52743
 30
0.0
 10
7.28724
 20
-5.62266
 30
0.0
 10
7.73621
 20
-5.89172
 30
0.0
 10
7.84523
 20
-5.9091
 30
0.0
  0
SPLINE
  5
88
330
1F
100
AcDbEntity
  8
Plan 1
 62
   250
370
    20
100
AcDbSpline
210
0.0
220
0.0
230
1.0
 70
    11
 71
     3
 72
    29
 73
    25
 74
     0
 42
0.0000000001
 43
0.0000000001
 40
0.0
 40
0.0
 40
0.0
 40
0.0
 40
0.125
 40
0.125
 40
0.125
 40
0.25
 40
0.25
 40
0.25
 40
0.375
 40
0.375
 40
0.375
 40
0.5
 40
0.5
 40
0.5
 40
0.625
 40
0.625
 40
0.625
 40
0.75
 40
0.75
 40
0.75
 40
0.875
 40
0.875
 40
0.875
 40
1.0
 40
1.0
 40
1.0
 40
1.0
 10
6.3795
 20
-3.03684
 30
0.0
 10
7.28216
 20
-2.86102
 30
0.0
 10
8.604
 20
-3.26866
 30
0.0
 10
9.52628
 20
-3.05745
 30
0.0
 10
9.81695
 20
-2.99091
 30
0.0
 10
11.33807
 20
-3.08663
 30
0.0
 10
11.61122
 20
-3.14462
 30
0.0
 10
12.04543
 20
-3.23674
 30
0.0
 10
11.89038
 20
-3.22463
 30
0.0
 10
12.31547
 20
-2.995
 30
0.0
 10
12.11243
 20
-3.44493
 30
0.0
 10
11.48591
 20
-5.04489
 30
0.0
 10
11.05832
 20
-5.01748
 30
0.0
 10
11.00878
 20
-5.01426
 30
0.0
 10
10.55584
 20
-4.85619
 30
0.0
 10
10.41056
 20
-4.79138
 30
0.0
 10
9.63541
 20
-4.44534
 30
0.0
 10
9.60313
 20
-4.4277
 30
0.0
 10
9.39863
 20
-4.24146
 30
0.0
 10
9.10288
 20
-3.97203
 30
0.0
 10
8.52626
 20
-3.66969
 30
0.0
 10
8.30811
 20
-3.66969
 30
0.0
 10
7.862
 20
-3.66969
 30
0.0
 10
6.90036
 20
-3.18497
 30
0.0
 10
6.3795
 20
-3.03684
 30
0.0
  0
SPLINE
  5
89
330
1F
100
AcDbEntity
  8
Plan 1
 62
   250
370
    20
100
AcDbSpline
210
0.0
220
0.0
230
1.0
 70
    11
 71
     3
 72
    14
 73
    10
 74
     0
 42
0.0000000001
 43
0.0000000001
 40
0.0
 40
0.0
 40
0.0
 40
0.0
 40
0.3333333333333333
 40
0.3333333333333333
 40
0.3333333333333333
 40
0.6666666666666666
 40
0.6666666666666666
 40
0.6666666666666666
 40
1.0
 40
1.0
 40
1.0
 40
1.0
 10
12.70397
 20
7.38215
 30
0.0
 10
12.70397
 20
7.27239
 30
0.0
 10
12.4364
 20
7.28207
 30
0.0
 10
12.42908
 20
7.31883
 30
0.0
 10
12.39468
 20
7.48905
 30
0.0
 10
12.39084
 20
7.83969
 30
0.0
 10
12.36203
 20
8.01873
 30
0.0
 10
12.48185
 20
7.88365
 30
0.0
 10
12.70397
 20
7.53177
 30
0.0
 10
12.70397
 20
7.38215
 30
0.0
  0
SPLINE
  5
8A
330
1F
100
AcDbEntity
  8
Plan 1
 62
   250
370
    20
100
AcDbSpline
210
0.0
220
0.0
230
1.0
 70
    11
 71
     3
 72
   125
 73
   121
 74
     0
 42
0.0000000001
 43
0.0000000001
 40
0.0
 40
0.0
 40
0.0
 40
0.0
 40
0.025
 40
0.025
 40
0.025
 40
0.05
 40
0.05
 40
0.05
 40
0.075
 40
0.075
 40
0.075
 40
0.1
 40
0.1
 40
0.1
 40
0.125
 40
0.125
 40
0.125
 40
0.15
 40
0.15
 40
0.15
 40
0.175
 40
0.175
 40
0.175
 40
0.2
 40
0.2
 40
0.2
 40
0.225
 40
0.225
 40
0.225
 40
0.25
 40
0.25
 40
0.25
 40
0.275
 40
0.275
 40
0.275
 40
0.3
 40
0.3
 40
0.3
 40
0.325
 40
0.325
 40
0.325
 40
0.35
 40
0.35
 40
0.35
 40
0.375
 40
0.375
 40
0.375
 40
0.4
 40
0.4
 40
0.4
 40
0.425
 40
0.425
 40
0.425
 40
0.45
 40
0.45
 40
0.45
 40
0.475
 40
0.475
 40
0.475
 40
0.5
 40
0.5
 40
0.5
 40
0.525
 40
0.525
 40
0.525
 40
0.55
 40
0.55
 40
0.55
 40
0.5750000000000001
 40
0.5750000000000001
 40
0.5750000000000001
 40
0.6000000000000001
 40
0.6000000000000001
 40
0.6000000000000001
 40
0.625
 40
0.625
 40
0.625
 40
0.65
 40
0.65
 40
0.65
 40
0.675
 40
0.675
 40
0.675
 40
0.7000000000000001
 40
0.7000000000000001
 40
0.7000000000000001
 40
0.7250000000000001
 40
0.7250000000000001
 40
0.7250000000000001
 40
0.75
 40
0.75
 40
0.75
 40
0.775
 40
0.775
 40
0.775
 40
0.8
 40
0.8
 40
0.8
 40
0.8250000000000001
 40
0.8250000000000001
 40
0.8250000000000001
 40
0.8500000000000001
 40
0.8500000000000001
 40
0.8500000000000001
 40
0.875
 40
0.875
 40
0.875
 40
0.9
 40
0.9
 40
0.9
 40
0.925
 40
0.925
 40
0.925
 40
0.9500000000000001
 40
0.9500000000000001
 40
0.9500000000000001
 40
0.9750000000000001
 40
0.9750000000000001
 40
0.9750000000000001
 40
1.0
 40
1.0
 40
1.0
 40
1.0
 10
1.13366
 20
5.80478
 30
0.0
 10
0.36434
 20
6.20484
 30
0.0
 10
0.22677
 20
5.80727
 30
0.0
 10
-0.11852
 20
5.96756
 30
0.0
 10
-0.49548
 20
6.14251
 30
0.0
 10
-1.42286
 20
5.92845
 30
0.0
 10
-1.4868
 20
6.40549
 30
0.0
 10
-1.5238
 20
6.68137
 30
0.0
 10
-1.12648
 20
6.80405
 30
0.0
 10
-1.12648
 20
6.9693
 30
0.0
 10
-1.12648
 20
7.219
 30
0.0
 10
-1.31731
 20
7.04343
 30
0.0
 10
-1.37108
 20
7.02506
 30
0.0
 10
-1.58439
 20
6.95205
 30
0.0
 10
-1.68719
 20
6.5186
 30
0.0
 10
-1.8229
 20
6.70422
 30
0.0
 10
-1.89157
 20
6.79808
 30
0.0
 10
-1.87742
 20
6.91455
 30
0.0
 10
-1.7658
 20
7.17554
 30
0.0
 10
-1.58898
 20
7.58901
 30
0.0
 10
-1.59892
 20
7.7827
 30
0.0
 10
-1.78914
 20
7.63308
 30
0.0
 10
-1.9174
 20
7.53214
 30
0.0
 10
-1.92138
 20
7.53686
 30
0.0
 10
-1.96582
 20
7.71329
 30
0.0
 10
-2.05758
 20
8.07772
 30
0.0
 10
-2.47129
 20
7.96448
 30
0.0
 10
-2.34092
 20
7.88389
 30
0.0
 10
-2.28344
 20
7.84838
 30
0.0
 10
-2.34999
 20
7.70125
 30
0.0
 10
-2.22285
 20
7.58329
 30
0.0
 10
-2.04468
 20
7.41804
 30
0.0
 10
-2.18771
 20
7.12388
 30
0.0
 10
-2.38476
 20
7.34217
 30
0.0
 10
-2.43032
 20
7.39258
 30
0.0
 10
-2.55138
 20
7.45118
 30
0.0
 10
-2.69814
 20
7.49377
 30
0.0
 10
-3.03437
 20
7.59124
 30
0.0
 10
-3.02394
 20
7.69839
 30
0.0
 10
-3.12588
 20
7.69839
 30
0.0
 10
-3.26283
 20
7.69839
 30
0.0
 10
-3.48782
 20
8.14489
 30
0.0
 10
-3.48782
 20
7.8721
 30
0.0
 10
-3.48782
 20
7.69777
 30
0.0
 10
-3.35583
 20
7.55834
 30
0.0
 10
-3.03288
 20
7.39147
 30
0.0
 10
-2.49092
 20
7.11148
 30
0.0
 10
-2.56889
 20
6.83323
 30
0.0
 10
-2.3197
 20
6.66996
 30
0.0
 10
-2.22223
 20
6.60614
 30
0.0
 10
-1.98097
 20
6.14252
 30
0.0
 10
-2.44932
 20
6.37644
 30
0.0
 10
-2.91493
 20
6.609
 30
0.0
 10
-3.25613
 20
6.49241
 30
0.0
 10
-3.61247
 20
7.01464
 30
0.0
 10
-3.7385
 20
7.19928
 30
0.0
 10
-3.75551
 20
7.24621
 30
0.0
 10
-3.75278
 20
7.40253
 30
0.0
 10
-3.74284
 20
7.98138
 30
0.0
 10
-4.00235
 20
7.8207
 30
0.0
 10
-4.0941
 20
7.59933
 30
0.0
 10
-4.13793
 20
7.49353
 30
0.0
 10
-3.98645
 20
7.15482
 30
0.0
 10
-4.00036
 20
7.14092
 30
0.0
 10
-4.03078
 20
7.11049
 30
0.0
 10
-4.32542
 20
7.33063
 30
0.0
 10
-4.51539
 20
7.5257
 30
0.0
 10
-5.40924
 20
8.44338
 30
0.0
 10
-4.48336
 20
8.93221
 30
0.0
 10
-5.19407
 20
9.54321
 30
0.0
 10
-5.34281
 20
9.67109
 30
0.0
 10
-5.61312
 20
10.04209
 30
0.0
 10
-5.40204
 20
9.97666
 30
0.0
 10
-4.92836
 20
9.8299
 30
0.0
 10
-5.35299
 20
10.15533
 30
0.0
 10
-5.24237
 20
10.32966
 30
0.0
 10
-5.14725
 20
10.47952
 30
0.0
 10
-5.00273
 20
9.8843
 30
0.0
 10
-4.64415
 20
9.52583
 30
0.0
 10
-4.11869
 20
9.00051
 30
0.0
 10
-4.39818
 20
8.95059
 30
0.0
 10
-3.9384
 20
8.83165
 30
0.0
 10
-3.68573
 20
8.76622
 30
0.0
 10
-3.48223
 20
8.64552
 30
0.0
 10
-3.28518
 20
8.64118
 30
0.0
 10
-3.15495
 20
8.63832
 30
0.0
 10
-2.7015
 20
8.55662
 30
0.0
 10
-2.98149
 20
8.44065
 30
0.0
 10
-3.29289
 20
8.31165
 30
0.0
 10
-3.21964
 20
7.85896
 30
0.0
 10
-3.09919
 20
8.01676
 30
0.0
 10
-3.01812
 20
8.12304
 30
0.0
 10
-2.96386
 20
8.03129
 30
0.0
 10
-2.79463
 20
8.21592
 30
0.0
 10
-2.51987
 20
8.5159
 30
0.0
 10
-2.27228
 20
8.16302
 30
0.0
 10
-1.65184
 20
8.09126
 30
0.0
 10
-1.10204
 20
8.02756
 30
0.0
 10
-1.25166
 20
8.00981
 30
0.0
 10
-0.68412
 20
7.81773
 30
0.0
 10
0.06918
 20
7.5627
 30
0.0
 10
0.2214
 20
7.26434
 30
0.0
 10
0.10457
 20
7.36131
 30
0.0
 10
-0.03325
 20
7.47566
 30
0.0
 10
-0.44722
 20
7.1249
 30
0.0
 10
-0.26171
 20
7.1249
 30
0.0
 10
-0.14413
 20
7.1249
 30
0.0
 10
-0.0587
 20
6.96758
 30
0.0
 10
0.14244
 20
7.00532
 30
0.0
 10
0.31031
 20
7.03686
 30
0.0
 10
0.26003
 20
6.9687
 30
0.0
 10
0.55454
 20
6.92847
 30
0.0
 10
0.79292
 20
6.89581
 30
0.0
 10
0.87934
 20
6.83348
 30
0.0
 10
0.9716
 20
6.62725
 30
0.0
 10
1.0749
 20
6.39642
 30
0.0
 10
1.25444
 20
6.42001
 30
0.0
 10
1.3555
 20
6.26568
 30
0.0
 10
1.48339
 20
6.07062
 30
0.0
 10
1.53343
 20
5.59707
 30
0.0
 10
1.13366
 20
5.80478
 30
0.0
  0
SPLINE
  5
8B
330
1F
100
AcDbEntity
  8
Plan 1
 62
   250
370
    20
100
AcDbSpline
210
0.0
220
0.0
230
1.0
 70
    11
 71
     3
 72
    38
 73
    34
 74
     0
 42
0.0000000001
 43
0.0000000001
 40
0.0
 40
0.0
 40
0.0
 40
0.0
 40
0.0909090909090909
 40
0.0909090909090909
 40
0.0909090909090909
 40
0.1818181818181818
 40
0.1818181818181818
 40
0.1818181818181818
 40
0.2727272727272727
 40
0.2727272727272727
 40
0.2727272727272727
 40
0.3636363636363636
 40
0.3636363636363636
 40
0.3636363636363636
 40
0.4545454545454546
 40
0.4545454545454546
 40
0.4545454545454546
 40
0.5454545454545454
 40
0.5454545454545454
 40
0.5454545454545454
 40
0.6363636363636364
 40
0.6363636363636364
 40
0.6363636363636364
 40
0.7272727272727273
 40
0.7272727272727273
 40
0.7272727272727273
 40
0.8181818181818182
 40
0.8181818181818182
 40
0.8181818181818182
 40
0.9090909090909092
 40
0.9090909090909092
 40
0.9090909090909092
 40
1.0
 40
1.0
 40
1.0
 40
1.0
 10
-0.43467
 20
8.86664
 30
0.0
 10
-0.20571
 20
8.42748
 30
0.0
 10
-0.80406
 20
8.44138
 30
0.0
 10
-1.10949
 20
8.51215
 30
0.0
 10
-1.10949
 20
8.51215
 30
0.0
 10
-1.10952
 20
8.5119
 30
0.0
 10
-1.10952
 20
8.5119
 30
0.0
 10
-1.39559
 20
8.57821
 30
0.0
 10
-1.96064
 20
8.79314
 30
0.0
 10
-2.12827
 20
8.89942
 30
0.0
 10
-2.94029
 20
9.41445
 30
0.0
 10
-1.65024
 20
9.9738
 30
0.0
 10
-1.98846
 20
10.45667
 30
0.0
 10
-2.24746
 20
10.82655
 30
0.0
 10
-2.27527
 20
9.78048
 30
0.0
 10
-2.39459
 20
9.89967
 30
0.0
 10
-2.4332
 20
9.93817
 30
0.0
 10
-2.45444
 20
10.4131
 30
0.0
 10
-2.47579
 20
10.50646
 30
0.0
 10
-2.62603
 20
11.16316
 30
0.0
 10
-1.97665
 20
11.5339
 30
0.0
 10
-2.29017
 20
11.99591
 30
0.0
 10
-2.51118
 20
12.32171
 30
0.0
 10
-2.12677
 20
12.29192
 30
0.0
 10
-2.02086
 20
11.80085
 30
0.0
 10
-1.99975
 20
11.70289
 30
0.0
 10
-1.47405
 20
11.15049
 30
0.0
 10
-1.28594
 20
11.02844
 30
0.0
 10
-0.87111
 20
10.7595
 30
0.0
 10
-0.81487
 20
10.04606
 30
0.0
 10
-0.61931
 20
9.5704
 30
0.0
 10
-0.48185
 20
9.23615
 30
0.0
 10
-0.50855
 20
9.00844
 30
0.0
 10
-0.43467
 20
8.86664
 30
0.0
  0
SPLINE
  5
8C
330
1F
100
AcDbEntity
  8
Plan 1
 62
   250
370
    20
100
AcDbSpline
210
0.0
220
0.0
230
1.0
 70
    11
 71
     3
 72
    41
 73
    37
 74
     0
 42
0.0000000001
 43
0.0000000001
 40
0.0
 40
0.0
 40
0.0
 40
0.0
 40
0.0833333333333333
 40
0.0833333333333333
 40
0.0833333333333333
 40
0.1666666666666667
 40
0.1666666666666667
 40
0.1666666666666667
 40
0.25
 40
0.25
 40
0.25
 40
0.3333333333333333
 40
0.3333333333333333
 40
0.3333333333333333
 40
0.4166666666666666
 40
0.4166666666666666
 40
0.4166666666666666
 40
0.5
 40
0.5
 40
0.5
 40
0.5833333333333333
 40
0.5833333333333333
 40
0.5833333333333333
 40
0.6666666666666666
 40
0.6666666666666666
 40
0.6666666666666666
 40
0.75
 40
0.75
 40
0.75
 40
0.8333333333333333
 40
0.8333333333333333
 40
0.8333333333333333
 40
0.9166666666666666
 40
0.9166666666666666
 40
0.9166666666666666
 40
1.0
 40
1.0
 40
1.0
 40
1.0
 10
-1.57212
 20
12.16341
 30
0.0
 10
-1.82727
 20
11.98188
 30
0.0
 10
-1.83361
 20
12.20712
 30
0.0
 10
-1.94386
 20
12.36368
 30
0.0
 10
-2.16462
 20
12.6772
 30
0.0
 10
-1.58055
 20
12.12418
 30
0.0
 10
-1.55895
 20
12.34494
 30
0.0
 10
-1.53003
 20
12.63983
 30
0.0
 10
-1.56181
 20
12.64976
 30
0.0
 10
-1.1301
 20
12.79429
 30
0.0
 10
-0.75227
 20
12.92068
 30
0.0
 10
-0.73018
 20
12.76461
 30
0.0
 10
-0.82007
 20
12.70911
 30
0.0
 10
-0.86589
 20
12.68079
 30
0.0
 10
-0.88215
 20
12.26113
 30
0.0
 10
-0.93331
 20
12.22947
 30
0.0
 10
-0.98955
 20
12.1947
 30
0.0
 10
-1.19194
 20
12.43731
 30
0.0
 10
-1.17158
 20
12.51517
 30
0.0
 10
-1.14687
 20
12.60978
 30
0.0
 10
-1.22708
 20
12.64778
 30
0.0
 10
-1.28581
 20
12.5693
 30
0.0
 10
-1.47131
 20
12.32146
 30
0.0
 10
-0.86949
 20
11.82234
 30
0.0
 10
-1.05261
 20
11.36889
 30
0.0
 10
-1.07285
 20
11.31885
 30
0.0
 10
-1.08813
 20
11.32283
 30
0.0
 10
-1.18149
 20
11.40266
 30
0.0
 10
-1.63891
 20
11.79365
 30
0.0
 10
-1.56181
 20
12.27515
 30
0.0
 10
-1.31373
 20
11.63658
 30
0.0
 10
-1.17579
 20
11.28148
 30
0.0
 10
-1.09297
 20
11.77913
 30
0.0
 10
-1.26109
 20
11.97059
 30
0.0
 10
-1.38649
 20
12.1135
 30
0.0
 10
-1.34514
 20
12.32482
 30
0.0
 10
-1.57212
 20
12.16341
 30
0.0
  0
SPLINE
  5
8D
330
1F
100
AcDbEntity
  8
Plan 1
 62
   250
370
    20
100
AcDbSpline
210
0.0
220
0.0
230
1.0
 70
    11
 71
     3
 72
    47
 73
    43
 74
     0
 42
0.0000000001
 43
0.0000000001
 40
0.0
 40
0.0
 40
0.0
 40
0.0
 40
0.0714285714285714
 40
0.0714285714285714
 40
0.0714285714285714
 40
0.1428571428571428
 40
0.1428571428571428
 40
0.1428571428571428
 40
0.2142857142857143
 40
0.2142857142857143
 40
0.2142857142857143
 40
0.2857142857142857
 40
0.2857142857142857
 40
0.2857142857142857
 40
0.3571428571428571
 40
0.3571428571428571
 40
0.3571428571428571
 40
0.4285714285714285
 40
0.4285714285714285
 40
0.4285714285714285
 40
0.5
 40
0.5
 40
0.5
 40
0.5714285714285714
 40
0.5714285714285714
 40
0.5714285714285714
 40
0.6428571428571428
 40
0.6428571428571428
 40
0.6428571428571428
 40
0.7142857142857142
 40
0.7142857142857142
 40
0.7142857142857142
 40
0.7857142857142857
 40
0.7857142857142857
 40
0.7857142857142857
 40
0.8571428571428571
 40
0.8571428571428571
 40
0.8571428571428571
 40
0.9285714285714285
 40
0.9285714285714285
 40
0.9285714285714285
 40
1.0
 40
1.0
 40
1.0
 40
1.0
 10
-3.15781
 20
8.99887
 30
0.0
 10
-3.24491
 20
8.93783
 30
0.0
 10
-3.5069
 20
8.93084
 30
0.0
 10
-3.60541
 20
8.98683
 30
0.0
 10
-3.71343
 20
9.04854
 30
0.0
 10
-3.72746
 20
9.14861
 30
0.0
 10
-3.8443
 20
9.14861
 30
0.0
 10
-3.98274
 20
9.14861
 30
0.0
 10
-4.07326
 20
9.39632
 30
0.0
 10
-3.83996
 20
9.62242
 30
0.0
 10
-3.71878
 20
9.73988
 30
0.0
 10
-3.68277
 20
9.90403
 30
0.0
 10
-3.76111
 20
9.98237
 30
0.0
 10
-3.90415
 20
10.12541
 30
0.0
 10
-3.75266
 20
10.76274
 30
0.0
 10
-4.03576
 20
10.79539
 30
0.0
 10
-4.14303
 20
10.8078
 30
0.0
 10
-4.14378
 20
10.80433
 30
0.0
 10
-4.07736
 20
10.58542
 30
0.0
 10
-3.97828
 20
10.25875
 30
0.0
 10
-4.09735
 20
9.67357
 30
0.0
 10
-4.32382
 20
9.75961
 30
0.0
 10
-4.69296
 20
9.89992
 30
0.0
 10
-4.63746
 20
10.13607
 30
0.0
 10
-4.75964
 20
10.38117
 30
0.0
 10
-4.86283
 20
10.58802
 30
0.0
 10
-4.72786
 20
10.70474
 30
0.0
 10
-4.68452
 20
10.55884
 30
0.0
 10
-4.64132
 20
10.41344
 30
0.0
 10
-4.52112
 20
10.22236
 30
0.0
 10
-4.35152
 20
10.2349
 30
0.0
 10
-3.82059
 20
10.27426
 30
0.0
 10
-4.56967
 20
11.04358
 30
0.0
 10
-3.91484
 20
10.95132
 30
0.0
 10
-3.55166
 20
10.90017
 30
0.0
 10
-3.45929
 20
10.95914
 30
0.0
 10
-3.6202
 20
11.21951
 30
0.0
 10
-3.94165
 20
11.73964
 30
0.0
 10
-3.0632
 20
11.20921
 30
0.0
 10
-2.99553
 20
10.84852
 30
0.0
 10
-2.95642
 20
10.63943
 30
0.0
 10
-3.01962
 20
9.09572
 30
0.0
 10
-3.15781
 20
8.99887
 30
0.0
  0
SPLINE
  5
8E
330
1F
100
AcDbEntity
  8
Plan 1
 62
   250
370
    20
100
AcDbSpline
210
0.0
220
0.0
230
1.0
 70
    11
 71
     3
 72
    50
 73
    46
 74
     0
 42
0.0000000001
 43
0.0000000001
 40
0.0
 40
0.0
 40
0.0
 40
0.0
 40
0.0666666666666667
 40
0.0666666666666667
 40
0.0666666666666667
 40
0.1333333333333333
 40
0.1333333333333333
 40
0.1333333333333333
 40
0.2
 40
0.2
 40
0.2
 40
0.2666666666666667
 40
0.2666666666666667
 40
0.2666666666666667
 40
0.3333333333333333
 40
0.3333333333333333
 40
0.3333333333333333
 40
0.4
 40
0.4
 40
0.4
 40
0.4666666666666667
 40
0.4666666666666667
 40
0.4666666666666667
 40
0.5333333333333333
 40
0.5333333333333333
 40
0.5333333333333333
 40
0.6
 40
0.6
 40
0.6
 40
0.6666666666666666
 40
0.6666666666666666
 40
0.6666666666666666
 40
0.7333333333333333
 40
0.7333333333333333
 40
0.7333333333333333
 40
0.8
 40
0.8
 40
0.8
 40
0.8666666666666667
 40
0.8666666666666667
 40
0.8666666666666667
 40
0.9333333333333333
 40
0.9333333333333333
 40
0.9333333333333333
 40
1.0
 40
1.0
 40
1.0
 40
1.0
 10
-5.30508
 20
9.22373
 30
0.0
 10
-5.21184
 20
8.98174
 30
0.0
 10
-5.28944
 20
8.4893
 30
0.0
 10
-5.43285
 20
8.41295
 30
0.0
 10
-5.51169
 20
8.37098
 30
0.0
 10
-5.9177
 20
8.34652
 30
0.0
 10
-6.28733
 20
8.36143
 30
0.0
 10
-6.67819
 20
8.3772
 30
0.0
 10
-6.72587
 20
8.39098
 30
0.0
 10
-6.72587
 20
8.48808
 30
0.0
 10
-6.72587
 20
8.59485
 30
0.0
 10
-6.64714
 20
8.61945
 30
0.0
 10
-6.50063
 20
8.55823
 30
0.0
 10
-6.11101
 20
8.39545
 30
0.0
 10
-6.04383
 20
8.67221
 30
0.0
 10
-6.32432
 20
8.76546
 30
0.0
 10
-6.57686
 20
8.84926
 30
0.0
 10
-6.37324
 20
8.95927
 30
0.0
 10
-6.11088
 20
8.88067
 30
0.0
 10
-5.8422
 20
8.80009
 30
0.0
 10
-6.09053
 20
8.40674
 30
0.0
 10
-5.88317
 20
8.40674
 30
0.0
 10
-5.67471
 20
8.40674
 30
0.0
 10
-5.70376
 20
8.97206
 30
0.0
 10
-5.60307
 20
8.93704
 30
0.0
 10
-5.55961
 20
8.9219
 30
0.0
 10
-5.55849
 20
8.87063
 30
0.0
 10
-5.59723
 20
8.66873
 30
0.0
 10
-5.65175
 20
8.38489
 30
0.0
 10
-5.38393
 20
8.54047
 30
0.0
 10
-5.35338
 20
8.76868
 30
0.0
 10
-5.31526
 20
9.05288
 30
0.0
 10
-5.55974
 20
9.1074
 30
0.0
 10
-5.47233
 20
9.29935
 30
0.0
 10
-5.3766
 20
9.50943
 30
0.0
 10
-5.65746
 20
9.40949
 30
0.0
 10
-5.74015
 20
9.49217
 30
0.0
 10
-5.82942
 20
9.58144
 30
0.0
 10
-5.91633
 20
9.30842
 30
0.0
 10
-5.91633
 20
9.49329
 30
0.0
 10
-5.91633
 20
9.59473
 30
0.0
 10
-5.7584
 20
9.76608
 30
0.0
 10
-5.69793
 20
9.73019
 30
0.0
 10
-5.62766
 20
9.6886
 30
0.0
 10
-5.34258
 20
9.32107
 30
0.0
 10
-5.30508
 20
9.22373
 30
0.0
  0
SPLINE
  5
8F
330
1F
100
AcDbEntity
  8
Plan 1
 62
   250
370
    20
100
AcDbSpline
210
0.0
220
0.0
230
1.0
 70
    11
 71
     3
 72
    68
 73
    64
 74
     0
 42
0.0000000001
 43
0.0000000001
 40
0.0
 40
0.0
 40
0.0
 40
0.0
 40
0.0476190476190476
 40
0.0476190476190476
 40
0.0476190476190476
 40
0.0952380952380952
 40
0.0952380952380952
 40
0.0952380952380952
 40
0.1428571428571428
 40
0.1428571428571428
 40
0.1428571428571428
 40
0.1904761904761905
 40
0.1904761904761905
 40
0.1904761904761905
 40
0.2380952380952381
 40
0.2380952380952381
 40
0.2380952380952381
 40
0.2857142857142857
 40
0.2857142857142857
 40
0.2857142857142857
 40
0.3333333333333333
 40
0.3333333333333333
 40
0.3333333333333333
 40
0.3809523809523809
 40
0.3809523809523809
 40
0.3809523809523809
 40
0.4285714285714285
 40
0.4285714285714285
 40
0.4285714285714285
 40
0.4761904761904762
 40
0.4761904761904762
 40
0.4761904761904762
 40
0.5238095238095237
 40
0.5238095238095237
 40
0.5238095238095237
 40
0.5714285714285714
 40
0.5714285714285714
 40
0.5714285714285714
 40
0.6190476190476191
 40
0.6190476190476191
 40
0.6190476190476191
 40
0.6666666666666666
 40
0.6666666666666666
 40
0.6666666666666666
 40
0.7142857142857142
 40
0.7142857142857142
 40
0.7142857142857142
 40
0.7619047619047619
 40
0.7619047619047619
 40
0.7619047619047619
 40
0.8095238095238095
 40
0.8095238095238095
 40
0.8095238095238095
 40
0.8571428571428571
 40
0.8571428571428571
 40
0.8571428571428571
 40
0.9047619047619047
 40
0.9047619047619047
 40
0.9047619047619047
 40
0.9523809523809523
 40
0.9523809523809523
 40
0.9523809523809523
 40
1.0
 40
1.0
 40
1.0
 40
1.0
 10
-6.38865
 20
6.6769
 30
0.0
 10
-6.38865
 20
6.5669
 30
0.0
 10
-7.41399
 20
6.125
 30
0.0
 10
-7.57862
 20
6.3069
 30
0.0
 10
-7.57862
 20
6.3069
 30
0.0
 10
-7.57885
 20
6.30678
 30
0.0
 10
-7.57885
 20
6.30678
 30
0.0
 10
-7.71258
 20
6.45453
 30
0.0
 10
-7.73455
 20
6.737
 30
0.0
 10
-7.61051
 20
6.71341
 30
0.0
 10
-7.49616
 20
6.69167
 30
0.0
 10
-7.59363
 20
6.40536
 30
0.0
 10
-7.46711
 20
6.36526
 30
0.0
 10
-7.38691
 20
6.33981
 30
0.0
 10
-6.99752
 20
6.50408
 30
0.0
 10
-6.93296
 20
6.59049
 30
0.0
 10
-6.85375
 20
6.6964
 30
0.0
 10
-6.72624
 20
6.6065
 30
0.0
 10
-6.72624
 20
6.71862
 30
0.0
 10
-6.72624
 20
6.84228
 30
0.0
 10
-7.2322
 20
6.89071
 30
0.0
 10
-7.2322
 20
7.09508
 30
0.0
 10
-7.2322
 20
7.18089
 30
0.0
 10
-7.40081
 20
7.32292
 30
0.0
 10
-7.40081
 20
7.35943
 30
0.0
 10
-7.40081
 20
7.41144
 30
0.0
 10
-7.25716
 20
7.53015
 30
0.0
 10
-7.17223
 20
7.54828
 30
0.0
 10
-6.60071
 20
7.67034
 30
0.0
 10
-6.44414
 20
8.15643
 30
0.0
 10
-6.97072
 20
7.88973
 30
0.0
 10
-7.3658
 20
7.68957
 30
0.0
 10
-6.99692
 20
8.22657
 30
0.0
 10
-6.50859
 20
8.14736
 30
0.0
 10
-5.98709
 20
8.0628
 30
0.0
 10
-7.01368
 20
7.51736
 30
0.0
 10
-7.09426
 20
7.23626
 30
0.0
 10
-7.15622
 20
7.02021
 30
0.0
 10
-7.03925
 20
6.95627
 30
0.0
 10
-6.91261
 20
7.15705
 30
0.0
 10
-6.82955
 20
7.2884
 30
0.0
 10
-6.07699
 20
7.92461
 30
0.0
 10
-5.88728
 20
8.10664
 30
0.0
 10
-5.7584
 20
8.04182
 30
0.0
 10
-5.64082
 20
7.98074
 30
0.0
 10
-5.50101
 20
7.93554
 30
0.0
 10
-5.20774
 20
7.84068
 30
0.0
 10
-5.4069
 20
7.61073
 30
0.0
 10
-5.16726
 20
7.54194
 30
0.0
 10
-4.79289
 20
7.43463
 30
0.0
 10
-5.0133
 20
6.77952
 30
0.0
 10
-5.48325
 20
7.36091
 30
0.0
 10
-5.70091
 20
7.63023
 30
0.0
 10
-5.88106
 20
7.63134
 30
0.0
 10
-5.82743
 20
7.3629
 30
0.0
 10
-5.74202
 20
6.93541
 30
0.0
 10
-5.0477
 20
7.11954
 30
0.0
 10
-5.92056
 20
6.82913
 30
0.0
 10
-6.20004
 20
6.73613
 30
0.0
 10
-6.40144
 20
7.00581
 30
0.0
 10
-6.55851
 20
6.92175
 30
0.0
 10
-6.74872
 20
6.81994
 30
0.0
 10
-6.38865
 20
6.76332
 30
0.0
 10
-6.38865
 20
6.6769
 30
0.0
  0
SPLINE
  5
90
330
1F
100
AcDbEntity
  8
Plan 1
 62
   250
370
    20
100
AcDbSpline
210
0.0
220
0.0
230
1.0
 70
    11
 71
     3
 72
    29
 73
    25
 74
     0
 42
0.0000000001
 43
0.0000000001
 40
0.0
 40
0.0
 40
0.0
 40
0.0
 40
0.125
 40
0.125
 40
0.125
 40
0.25
 40
0.25
 40
0.25
 40
0.375
 40
0.375
 40
0.375
 40
0.5
 40
0.5
 40
0.5
 40
0.625
 40
0.625
 40
0.625
 40
0.75
 40
0.75
 40
0.75
 40
0.875
 40
0.875
 40
0.875
 40
1.0
 40
1.0
 40
1.0
 40
1.0
 10
-3.82432
 20
-2.7103
 30
0.0
 10
-3.51093
 20
-2.76083
 30
0.0
 10
-1.8813
 20
-2.7843
 30
0.0
 10
-1.58157
 20
-2.83558
 30
0.0
 10
-1.74645
 20
-2.88637
 30
0.0
 10
-1.96758
 20
-2.96011
 30
0.0
 10
-2.12229
 20
-2.96061
 30
0.0
 10
-2.34467
 20
-2.96135
 30
0.0
 10
-2.73665
 20
-3.26493
 30
0.0
 10
-2.79588
 20
-3.28157
 30
0.0
 10
-2.79588
 20
-3.28157
 30
0.0
 10
-3.16849
 20
-3.28505
 30
0.0
 10
-3.16849
 20
-3.28505
 30
0.0
 10
-3.67061
 20
-3.28976
 30
0.0
 10
-3.68103
 20
-3.35086
 30
0.0
 10
-4.11139
 20
-3.45279
 30
0.0
 10
-4.44662
 20
-3.53225
 30
0.0
 10
-5.35946
 20
-3.55025
 30
0.0
 10
-5.62679
 20
-3.48271
 30
0.0
 10
-6.00027
 20
-3.38835
 30
0.0
 10
-7.17112
 20
-2.68932
 30
0.0
 10
-7.09178
 20
-2.60799
 30
0.0
 10
-7.0261
 20
-2.5407
 30
0.0
 10
-4.35672
 20
-2.62426
 30
0.0
 10
-3.82432
 20
-2.7103
 30
0.0
  0
SPLINE
  5
91
330
1F
100
AcDbEntity
  8
Plan 1
 62
   250
370
    20
100
AcDbSpline
210
0.0
220
0.0
230
1.0
 70
    11
 71
     3
 72
    65
 73
    61
 74
     0
 42
0.0000000001
 43
0.0000000001
 40
0.0
 40
0.0
 40
0.0
 40
0.0
 40
0.05
 40
0.05
 40
0.05
 40
0.1
 40
0.1
 40
0.1
 40
0.15
 40
0.15
 40
0.15
 40
0.2
 40
0.2
 40
0.2
 40
0.25
 40
0.25
 40
0.25
 40
0.3
 40
0.3
 40
0.3
 40
0.35
 40
0.35
 40
0.35
 40
0.4
 40
0.4
 40
0.4
 40
0.45
 40
0.45
 40
0.45
 40
0.5
 40
0.5
 40
0.5
 40
0.55
 40
0.55
 40
0.55
 40
0.6000000000000001
 40
0.6000000000000001
 40
0.6000000000000001
 40
0.65
 40
0.65
 40
0.65
 40
0.7000000000000001
 40
0.7000000000000001
 40
0.7000000000000001
 40
0.75
 40
0.75
 40
0.75
 40
0.8
 40
0.8
 40
0.8
 40
0.8500000000000001
 40
0.8500000000000001
 40
0.8500000000000001
 40
0.9
 40
0.9
 40
0.9
 40
0.9500000000000001
 40
0.9500000000000001
 40
0.9500000000000001
 40
1.0
 40
1.0
 40
1.0
 40
1.0
 10
-1.93256
 20
-3.94387
 30
0.0
 10
-1.88364
 20
-4.0211
 30
0.0
 10
-1.93058
 20
-4.11235
 30
0.0
 10
-1.83882
 20
-4.20002
 30
0.0
 10
-1.64451
 20
-4.38576
 30
0.0
 10
-1.63395
 20
-5.1285
 30
0.0
 10
-2.16859
 20
-5.44437
 30
0.0
 10
-2.41369
 20
-5.58914
 30
0.0
 10
-2.31784
 20
-5.9301
 30
0.0
 10
-2.75204
 20
-5.9301
 30
0.0
 10
-3.12155
 20
-5.9301
 30
0.0
 10
-3.26286
 20
-6.41074
 30
0.0
 10
-3.03998
 20
-6.18786
 30
0.0
 10
-2.94338
 20
-6.09126
 30
0.0
 10
-2.73366
 20
-6.03837
 30
0.0
 10
-2.66686
 20
-6.09375
 30
0.0
 10
-2.59771
 20
-6.1511
 30
0.0
 10
-2.66501
 20
-6.53663
 30
0.0
 10
-2.49478
 20
-6.79303
 30
0.0
 10
-2.41954
 20
-6.90639
 30
0.0
 10
-2.34987
 20
-7.13696
 30
0.0
 10
-2.2945
 20
-6.99255
 30
0.0
 10
-2.25875
 20
-6.89943
 30
0.0
 10
-2.00359
 20
-6.95145
 30
0.0
 10
-2.22261
 20
-6.77911
 30
0.0
 10
-2.60279
 20
-6.48001
 30
0.0
 10
-2.25763
 20
-5.74608
 30
0.0
 10
-2.06058
 20
-5.6439
 30
0.0
 10
-1.97031
 20
-5.59708
 30
0.0
 10
-1.96857
 20
-5.5982
 30
0.0
 10
-1.90053
 20
-5.75477
 30
0.0
 10
-1.8197
 20
-5.94064
 30
0.0
 10
-1.69927
 20
-6.03935
 30
0.0
 10
-1.77588
 20
-6.2282
 30
0.0
 10
-1.97864
 20
-6.72784
 30
0.0
 10
-1.73342
 20
-6.78159
 30
0.0
 10
-1.86937
 20
-7.06233
 30
0.0
 10
-1.95269
 20
-7.23442
 30
0.0
 10
-1.97715
 20
-7.24546
 30
0.0
 10
-2.27353
 20
-7.24546
 30
0.0
 10
-2.69854
 20
-7.24546
 30
0.0
 10
-2.48137
 20
-7.51365
 30
0.0
 10
-2.65657
 20
-7.30918
 30
0.0
 10
-2.86119
 20
-7.07029
 30
0.0
 10
-3.32345
 20
-7.64528
 30
0.0
 10
-3.26534
 20
-6.85312
 30
0.0
 10
-3.2204
 20
-6.23989
 30
0.0
 10
-3.5817
 20
-6.25008
 30
0.0
 10
-3.21791
 20
-5.93681
 30
0.0
 10
-2.86007
 20
-5.62864
 30
0.0
 10
-2.95841
 20
-5.30867
 30
0.0
 10
-2.6963
 20
-4.95368
 30
0.0
 10
-2.56667
 20
-4.77812
 30
0.0
 10
-2.64601
 20
-4.68375
 30
0.0
 10
-2.54556
 20
-4.58331
 30
0.0
 10
-2.45157
 20
-4.48944
 30
0.0
 10
-2.27278
 20
-4.04109
 30
0.0
 10
-2.10106
 20
-4.04109
 30
0.0
 10
-1.9394
 20
-4.04109
 30
0.0
 10
-1.99092
 20
-3.85161
 30
0.0
 10
-1.93256
 20
-3.94387
 30
0.0
  0
SPLINE
  5
92
330
1F
100
AcDbEntity
  8
Plan 1
 62
   250
370
    20
100
AcDbSpline
210
0.0
220
0.0
230
1.0
 70
    11
 71
     3
 72
    32
 73
    28
 74
     0
 42
0.0000000001
 43
0.0000000001
 40
0.0
 40
0.0
 40
0.0
 40
0.0
 40
0.1111111111111111
 40
0.1111111111111111
 40
0.1111111111111111
 40
0.2222222222222222
 40
0.2222222222222222
 40
0.2222222222222222
 40
0.3333333333333333
 40
0.3333333333333333
 40
0.3333333333333333
 40
0.4444444444444444
 40
0.4444444444444444
 40
0.4444444444444444
 40
0.5555555555555556
 40
0.5555555555555556
 40
0.5555555555555556
 40
0.6666666666666666
 40
0.6666666666666666
 40
0.6666666666666666
 40
0.7777777777777777
 40
0.7777777777777777
 40
0.7777777777777777
 40
0.8888888888888888
 40
0.8888888888888888
 40
0.8888888888888888
 40
1.0
 40
1.0
 40
1.0
 40
1.0
 10
-2.48062
 20
-3.82453
 30
0.0
 10
-2.82542
 20
-4.12936
 30
0.0
 10
-2.60578
 20
-4.682
 30
0.0
 10
-3.38614
 20
-4.47565
 30
0.0
 10
-3.48336
 20
-4.44995
 30
0.0
 10
-3.464
 20
-4.75067
 30
0.0
 10
-3.15843
 20
-4.69753
 30
0.0
 10
-2.85511
 20
-4.64475
 30
0.0
 10
-3.26745
 20
-4.98508
 30
0.0
 10
-3.33326
 20
-4.98508
 30
0.0
 10
-3.35847
 20
-4.98508
 30
0.0
 10
-3.46811
 20
-5.03251
 30
0.0
 10
-3.57662
 20
-5.09037
 30
0.0
 10
-3.82891
 20
-5.22496
 30
0.0
 10
-4.05588
 20
-5.23229
 30
0.0
 10
-4.30532
 20
-5.27463
 30
0.0
 10
-4.66949
 20
-5.33646
 30
0.0
 10
-4.13485
 20
-4.95143
 30
0.0
 10
-4.12714
 20
-4.95143
 30
0.0
 10
-3.79984
 20
-4.95143
 30
0.0
 10
-3.5211
 20
-4.06914
 30
0.0
 10
-3.52098
 20
-3.75388
 30
0.0
 10
-3.33139
 20
-3.75252
 30
0.0
 10
-2.62018
 20
-3.76034
 30
0.0
 10
-2.56841
 20
-3.70857
 30
0.0
 10
-2.48819
 20
-3.62835
 30
0.0
 10
-2.31039
 20
-3.67405
 30
0.0
 10
-2.48062
 20
-3.82453
 30
0.0
  0
SPLINE
  5
93
330
1F
100
AcDbEntity
  8
Plan 1
 62
   250
370
    20
100
AcDbSpline
210
0.0
220
0.0
230
1.0
 70
    11
 71
     3
 72
    56
 73
    52
 74
     0
 42
0.0000000001
 43
0.0000000001
 40
0.0
 40
0.0
 40
0.0
 40
0.0
 40
0.0588235294117647
 40
0.0588235294117647
 40
0.0588235294117647
 40
0.1176470588235294
 40
0.1176470588235294
 40
0.1176470588235294
 40
0.1764705882352941
 40
0.1764705882352941
 40
0.1764705882352941
 40
0.2352941176470588
 40
0.2352941176470588
 40
0.2352941176470588
 40
0.2941176470588235
 40
0.2941176470588235
 40
0.2941176470588235
 40
0.3529411764705882
 40
0.3529411764705882
 40
0.3529411764705882
 40
0.4117647058823529
 40
0.4117647058823529
 40
0.4117647058823529
 40
0.4705882352941176
 40
0.4705882352941176
 40
0.4705882352941176
 40
0.5294117647058824
 40
0.5294117647058824
 40
0.5294117647058824
 40
0.5882352941176471
 40
0.5882352941176471
 40
0.5882352941176471
 40
0.6470588235294118
 40
0.6470588235294118
 40
0.6470588235294118
 40
0.7058823529411764
 40
0.7058823529411764
 40
0.7058823529411764
 40
0.7647058823529411
 40
0.7647058823529411
 40
0.7647058823529411
 40
0.8235294117647058
 40
0.8235294117647058
 40
0.8235294117647058
 40
0.8823529411764706
 40
0.8823529411764706
 40
0.8823529411764706
 40
0.9411764705882353
 40
0.9411764705882353
 40
0.9411764705882353
 40
1.0
 40
1.0
 40
1.0
 40
1.0
 10
-5.83712
 20
-4.19133
 30
0.0
 10
-5.47469
 20
-4.18909
 30
0.0
 10
-5.57352
 20
-3.86515
 30
0.0
 10
-5.20054
 20
-3.99142
 30
0.0
 10
-4.89634
 20
-4.09448
 30
0.0
 10
-4.62318
 20
-3.89084
 30
0.0
 10
-4.428
 20
-3.99179
 30
0.0
 10
-4.19991
 20
-4.10975
 30
0.0
 10
-3.73281
 20
-3.62513
 30
0.0
 10
-3.83984
 20
-4.19591
 30
0.0
 10
-3.91906
 20
-4.61855
 30
0.0
 10
-4.18353
 20
-4.7524
 30
0.0
 10
-4.73319
 20
-4.64811
 30
0.0
 10
-5.14107
 20
-4.57075
 30
0.0
 10
-5.21781
 20
-4.80616
 30
0.0
 10
-5.37649
 20
-4.64749
 30
0.0
 10
-5.4578
 20
-4.56616
 30
0.0
 10
-5.52622
 20
-4.59559
 30
0.0
 10
-5.50549
 20
-4.70299
 30
0.0
 10
-5.45197
 20
-4.98124
 30
0.0
 10
-4.94104
 20
-4.63061
 30
0.0
 10
-5.08457
 20
-4.90811
 30
0.0
 10
-5.14604
 20
-5.02692
 30
0.0
 10
-5.09277
 20
-5.13545
 30
0.0
 10
-5.05751
 20
-5.02419
 30
0.0
 10
-4.96277
 20
-4.72571
 30
0.0
 10
-4.65869
 20
-4.83795
 30
0.0
 10
-4.45321
 20
-4.92375
 30
0.0
 10
-5.17612
 20
-5.56974
 30
0.0
 10
-4.99334
 20
-5.1352
 30
0.0
 10
-5.30359
 20
-5.20325
 30
0.0
 10
-5.50648
 20
-5.24782
 30
0.0
 10
-6.13548
 20
-4.94077
 30
0.0
 10
-6.31763
 20
-4.52892
 30
0.0
 10
-6.46414
 20
-4.19778
 30
0.0
 10
-6.43111
 20
-4.21963
 30
0.0
 10
-6.27281
 20
-4.17816
 30
0.0
 10
-6.4706
 20
-3.96684
 30
0.0
 10
-6.48935
 20
-3.90314
 30
0.0
 10
-6.48935
 20
-3.60726
 30
0.0
 10
-5.97494
 20
-3.61633
 30
0.0
 10
-6.17757
 20
-3.6542
 30
0.0
 10
-5.81924
 20
-3.80257
 30
0.0
 10
-5.47693
 20
-3.94437
 30
0.0
 10
-6.15548
 20
-3.95914
 30
0.0
 10
-6.19645
 20
-4.16451
 30
0.0
 10
-6.20564
 20
-4.21057
 30
0.0
 10
-6.30931
 20
-4.55575
 30
0.0
 10
-6.22649
 20
-4.53973
 30
0.0
 10
-6.06757
 20
-4.50881
 30
0.0
 10
-6.12046
 20
-4.19307
 30
0.0
 10
-5.83712
 20
-4.19133
 30
0.0
  0
SPLINE
  5
94
330
1F
100
AcDbEntity
  8
Plan 1
 62
   250
370
    20
100
AcDbSpline
210
0.0
220
0.0
230
1.0
 70
    11
 71
     3
 72
    14
 73
    10
 74
     0
 42
0.0000000001
 43
0.0000000001
 40
0.0
 40
0.0
 40
0.0
 40
0.0
 40
0.3333333333333333
 40
0.3333333333333333
 40
0.3333333333333333
 40
0.6666666666666666
 40
0.6666666666666666
 40
0.6666666666666666
 40
1.0
 40
1.0
 40
1.0
 40
1.0
 10
1.23407
 20
-3.1214
 30
0.0
 10
1.23209
 20
-3.22594
 30
0.0
 10
1.02411
 20
-3.42374
 30
0.0
 10
1.07999
 20
-3.27846
 30
0.0
 10
1.09129
 20
-3.24891
 30
0.0
 10
1.10979
 20
-3.18819
 30
0.0
 10
1.12096
 20
-3.1435
 30
0.0
 10
1.1443
 20
-3.0505
 30
0.0
 10
1.23581
 20
-3.03249
 30
0.0
 10
1.23407
 20
-3.1214
 30
0.0
  0
SPLINE
  5
95
330
1F
100
AcDbEntity
  8
Plan 1
 62
   250
370
    20
100
AcDbSpline
210
0.0
220
0.0
230
1.0
 70
    11
 71
     3
 72
    41
 73
    37
 74
     0
 42
0.0000000001
 43
0.0000000001
 40
0.0
 40
0.0
 40
0.0
 40
0.0
 40
0.0833333333333333
 40
0.0833333333333333
 40
0.0833333333333333
 40
0.1666666666666667
 40
0.1666666666666667
 40
0.1666666666666667
 40
0.25
 40
0.25
 40
0.25
 40
0.3333333333333333
 40
0.3333333333333333
 40
0.3333333333333333
 40
0.4166666666666666
 40
0.4166666666666666
 40
0.4166666666666666
 40
0.5
 40
0.5
 40
0.5
 40
0.5833333333333333
 40
0.5833333333333333
 40
0.5833333333333333
 40
0.6666666666666666
 40
0.6666666666666666
 40
0.6666666666666666
 40
0.75
 40
0.75
 40
0.75
 40
0.8333333333333333
 40
0.8333333333333333
 40
0.8333333333333333
 40
0.9166666666666666
 40
0.9166666666666666
 40
0.9166666666666666
 40
1.0
 40
1.0
 40
1.0
 40
1.0
 10
-3.72312
 20
-6.59609
 30
0.0
 10
-3.71939
 20
-6.04903
 30
0.0
 10
-3.27527
 20
-7.01738
 30
0.0
 10
-3.45767
 20
-7.00669
 30
0.0
 10
-3.52732
 20
-7.0026
 30
0.0
 10
-3.7153
 20
-6.91519
 30
0.0
 10
-3.73976
 20
-6.87545
 30
0.0
 10
-3.80209
 20
-6.77464
 30
0.0
 10
-4.07115
 20
-7.06208
 30
0.0
 10
-4.49703
 20
-6.13644
 30
0.0
 10
-4.50883
 20
-6.11086
 30
0.0
 10
-4.59388
 20
-6.06082
 30
0.0
 10
-4.68601
 20
-6.02544
 30
0.0
 10
-5.34197
 20
-5.77325
 30
0.0
 10
-4.72152
 20
-5.58205
 30
0.0
 10
-4.67968
 20
-5.47303
 30
0.0
 10
-4.62331
 20
-5.3259
 30
0.0
 10
-4.41869
 20
-5.65842
 30
0.0
 10
-4.12119
 20
-5.50457
 30
0.0
 10
-3.88913
 20
-5.38451
 30
0.0
 10
-3.74833
 20
-5.58392
 30
0.0
 10
-3.46784
 20
-5.36241
 30
0.0
 10
-2.75453
 20
-4.79896
 30
0.0
 10
-3.37695
 20
-5.7719
 30
0.0
 10
-3.47169
 20
-5.84416
 30
0.0
 10
-3.70289
 20
-6.02034
 30
0.0
 10
-3.66389
 20
-6.31114
 30
0.0
 10
-4.09139
 20
-6.16214
 30
0.0
 10
-4.36827
 20
-6.06567
 30
0.0
 10
-4.16004
 20
-6.31734
 30
0.0
 10
-4.04656
 20
-6.32678
 30
0.0
 10
-3.89334
 20
-6.33944
 30
0.0
 10
-3.83226
 20
-6.39307
 30
0.0
 10
-3.80805
 20
-6.53661
 30
0.0
 10
-3.78372
 20
-6.68101
 30
0.0
 10
-3.72399
 20
-6.72273
 30
0.0
 10
-3.72312
 20
-6.59609
 30
0.0
  0
SPLINE
  5
96
330
1F
100
AcDbEntity
  8
Plan 1
 62
   250
370
    20
100
AcDbSpline
210
0.0
220
0.0
230
1.0
 70
    11
 71
     3
 72
    35
 73
    31
 74
     0
 42
0.0000000001
 43
0.0000000001
 40
0.0
 40
0.0
 40
0.0
 40
0.0
 40
0.1
 40
0.1
 40
0.1
 40
0.2
 40
0.2
 40
0.2
 40
0.3
 40
0.3
 40
0.3
 40
0.4
 40
0.4
 40
0.4
 40
0.5
 40
0.5
 40
0.5
 40
0.6000000000000001
 40
0.6000000000000001
 40
0.6000000000000001
 40
0.7000000000000001
 40
0.7000000000000001
 40
0.7000000000000001
 40
0.8
 40
0.8
 40
0.8
 40
0.9
 40
0.9
 40
0.9
 40
1.0
 40
1.0
 40
1.0
 40
1.0
 10
-0.56504
 20
-7.80593
 30
0.0
 10
-0.59199
 20
-8.21555
 30
0.0
 10
-0.59608
 20
-8.22374
 30
0.0
 10
-0.77686
 20
-8.22374
 30
0.0
 10
-1.17567
 20
-8.22374
 30
0.0
 10
-1.09173
 20
-8.41359
 30
0.0
 10
-1.63222
 20
-8.20759
 30
0.0
 10
-1.82964
 20
-8.13234
 30
0.0
 10
-1.961
 20
-8.0571
 30
0.0
 10
-2.05388
 20
-7.96622
 30
0.0
 10
-2.66041
 20
-7.37261
 30
0.0
 10
-2.49974
 20
-7.44784
 30
0.0
 10
-2.20126
 20
-7.44784
 30
0.0
 10
-1.87509
 20
-7.44784
 30
0.0
 10
-1.79474
 20
-7.40824
 30
0.0
 10
-1.55437
 20
-7.12974
 30
0.0
 10
-1.33137
 20
-6.87136
 30
0.0
 10
-1.34081
 20
-6.8772
 30
0.0
 10
-1.32033
 20
-7.23702
 30
0.0
 10
-1.30108
 20
-7.57549
 30
0.0
 10
-1.30605
 20
-7.53489
 30
0.0
 10
-1.4805
 20
-7.72287
 30
0.0
 10
-1.22212
 20
-7.66414
 30
0.0
 10
-1.15756
 20
-7.66861
 30
0.0
 10
-1.16885
 20
-7.22932
 30
0.0
 10
-1.18573
 20
-6.57151
 30
0.0
 10
-0.81213
 20
-6.82418
 30
0.0
 10
-0.52643
 20
-6.32442
 30
0.0
 10
-0.05758
 20
-7.06717
 30
0.0
 10
-0.51848
 20
-7.09511
 30
0.0
 10
-0.56504
 20
-7.80593
 30
0.0
  0
SPLINE
  5
97
330
1F
100
AcDbEntity
  8
Plan 1
 62
   250
370
    20
100
AcDbSpline
210
0.0
220
0.0
230
1.0
 70
    11
 71
     3
 72
    44
 73
    40
 74
     0
 42
0.0000000001
 43
0.0000000001
 40
0.0
 40
0.0
 40
0.0
 40
0.0
 40
0.0769230769230769
 40
0.0769230769230769
 40
0.0769230769230769
 40
0.1538461538461539
 40
0.1538461538461539
 40
0.1538461538461539
 40
0.2307692307692308
 40
0.2307692307692308
 40
0.2307692307692308
 40
0.3076923076923077
 40
0.3076923076923077
 40
0.3076923076923077
 40
0.3846153846153846
 40
0.3846153846153846
 40
0.3846153846153846
 40
0.4615384615384616
 40
0.4615384615384616
 40
0.4615384615384616
 40
0.5384615384615385
 40
0.5384615384615385
 40
0.5384615384615385
 40
0.6153846153846154
 40
0.6153846153846154
 40
0.6153846153846154
 40
0.6923076923076923
 40
0.6923076923076923
 40
0.6923076923076923
 40
0.7692307692307693
 40
0.7692307692307693
 40
0.7692307692307693
 40
0.8461538461538463
 40
0.8461538461538463
 40
0.8461538461538463
 40
0.9230769230769231
 40
0.9230769230769231
 40
0.9230769230769231
 40
1.0
 40
1.0
 40
1.0
 40
1.0
 10
8.27907
 20
-5.20447
 30
0.0
 10
8.44272
 20
-5.34206
 30
0.0
 10
8.47102
 20
-5.22596
 30
0.0
 10
8.64386
 20
-5.40922
 30
0.0
 10
8.75139
 20
-5.5232
 30
0.0
 10
8.75747
 20
-5.52544
 30
0.0
 10
8.75747
 20
-5.45044
 30
0.0
 10
8.75747
 20
-5.28393
 30
0.0
 10
8.59581
 20
-5.24322
 30
0.0
 10
8.71327
 20
-5.1964
 30
0.0
 10
8.82414
 20
-5.15221
 30
0.0
 10
9.06117
 20
-5.20572
 30
0.0
 10
9.06117
 20
-5.13097
 30
0.0
 10
9.06117
 20
-4.91357
 30
0.0
 10
8.41328
 20
-5.1948
 30
0.0
 10
8.33345
 20
-4.79562
 30
0.0
 10
8.28963
 20
-4.57672
 30
0.0
 10
8.59618
 20
-4.57026
 30
0.0
 10
8.27534
 20
-4.21801
 30
0.0
 10
8.19104
 20
-4.12539
 30
0.0
 10
8.20966
 20
-4.0376
 30
0.0
 10
8.38088
 20
-4.23167
 30
0.0
 10
8.52031
 20
-4.38972
 30
0.0
 10
8.61319
 20
-4.44559
 30
0.0
 10
8.73661
 20
-4.44559
 30
0.0
 10
8.864
 20
-4.44559
 30
0.0
 10
8.82936
 20
-4.54903
 30
0.0
 10
9.09681
 20
-4.63768
 30
0.0
 10
9.52591
 20
-4.77998
 30
0.0
 10
9.41975
 20
-5.35336
 30
0.0
 10
9.42745
 20
-5.92699
 30
0.0
 10
9.42745
 20
-5.92699
 30
0.0
 10
9.31061
 20
-6.02954
 30
0.0
 10
9.31049
 20
-6.02953
 30
0.0
 10
8.94818
 20
-6.34764
 30
0.0
 10
8.73809
 20
-5.84205
 30
0.0
 10
8.35096
 20
-5.72446
 30
0.0
 10
7.7027
 20
-5.52755
 30
0.0
 10
7.98207
 20
-4.95453
 30
0.0
 10
8.27907
 20
-5.20447
 30
0.0
  0
SPLINE
  5
98
330
1F
100
AcDbEntity
  8
Plan 1
 62
   250
370
    20
100
AcDbSpline
210
0.0
220
0.0
230
1.0
 70
    11
 71
     3
 72
    32
 73
    28
 74
     0
 42
0.0000000001
 43
0.0000000001
 40
0.0
 40
0.0
 40
0.0
 40
0.0
 40
0.1111111111111111
 40
0.1111111111111111
 40
0.1111111111111111
 40
0.2222222222222222
 40
0.2222222222222222
 40
0.2222222222222222
 40
0.3333333333333333
 40
0.3333333333333333
 40
0.3333333333333333
 40
0.4444444444444444
 40
0.4444444444444444
 40
0.4444444444444444
 40
0.5555555555555556
 40
0.5555555555555556
 40
0.5555555555555556
 40
0.6666666666666666
 40
0.6666666666666666
 40
0.6666666666666666
 40
0.7777777777777777
 40
0.7777777777777777
 40
0.7777777777777777
 40
0.8888888888888888
 40
0.8888888888888888
 40
0.8888888888888888
 40
1.0
 40
1.0
 40
1.0
 40
1.0
 10
10.36587
 20
-5.9908
 30
0.0
 10
10.05558
 20
-6.13669
 30
0.0
 10
9.92558
 20
-6.11968
 30
0.0
 10
9.89926
 20
-5.92985
 30
0.0
 10
9.88499
 20
-5.82641
 30
0.0
 10
9.53012
 20
-5.63086
 30
0.0
 10
9.8871
 20
-5.77998
 30
0.0
 10
10.10774
 20
-5.87211
 30
0.0
 10
10.07967
 20
-5.73502
 30
0.0
 10
9.89169
 20
-5.62415
 30
0.0
 10
9.72817
 20
-5.52767
 30
0.0
 10
9.68248
 20
-5.10316
 30
0.0
 10
9.90486
 20
-5.33994
 30
0.0
 10
10.09172
 20
-5.53872
 30
0.0
 10
10.04938
 20
-5.20472
 30
0.0
 10
9.8876
 20
-5.05275
 30
0.0
 10
9.56552
 20
-4.75016
 30
0.0
 10
10.34141
 20
-5.13891
 30
0.0
 10
10.40523
 20
-5.32218
 30
0.0
 10
10.47724
 20
-5.52878
 30
0.0
 10
10.7119
 20
-5.35583
 30
0.0
 10
10.71352
 20
-5.62712
 30
0.0
 10
10.71389
 20
-5.69118
 30
0.0
 10
10.68881
 20
-5.72198
 30
0.0
 10
10.61283
 20
-5.75066
 30
0.0
 10
10.42584
 20
-5.82132
 30
0.0
 10
10.61668
 20
-5.87284
 30
0.0
 10
10.36587
 20
-5.9908
 30
0.0
  0
SPLINE
  5
99
330
1F
100
AcDbEntity
  8
Plan 1
 62
   250
370
    20
100
AcDbSpline
210
0.0
220
0.0
230
1.0
 70
    11
 71
     3
 72
    14
 73
    10
 74
     0
 42
0.0000000001
 43
0.0000000001
 40
0.0
 40
0.0
 40
0.0
 40
0.0
 40
0.3333333333333333
 40
0.3333333333333333
 40
0.3333333333333333
 40
0.6666666666666666
 40
0.6666666666666666
 40
0.6666666666666666
 40
1.0
 40
1.0
 40
1.0
 40
1.0
 10
1.96652
 20
3.4884
 30
0.0
 10
1.9685
 20
3.48282
 30
0.0
 10
2.3318
 20
2.66632
 30
0.0
 10
2.15711
 20
2.87777
 30
0.0
 10
2.05219
 20
3.00466
 30
0.0
 10
1.98478
 20
3.24828
 30
0.0
 10
1.86943
 20
3.41838
 30
0.0
 10
1.57031
 20
3.8594
 30
0.0
 10
1.95335
 20
3.52639
 30
0.0
 10
1.96652
 20
3.4884
 30
0.0
  0
SPLINE
  5
9A
330
1F
100
AcDbEntity
  8
Plan 1
 62
   250
370
    20
100
AcDbSpline
210
0.0
220
0.0
230
1.0
 70
    11
 71
     3
 72
    11
 73
     7
 74
     0
 42
0.0000000001
 43
0.0000000001
 40
0.0
 40
0.0
 40
0.0
 40
0.0
 40
0.5
 40
0.5
 40
0.5
 40
1.0
 40
1.0
 40
1.0
 40
1.0
 10
-4.56421
 20
-6.24731
 30
0.0
 10
-4.56049
 20
-6.15593
 30
0.0
 10
-4.52
 20
-6.26519
 30
0.0
 10
-4.54645
 20
-6.29164
 30
0.0
 10
-4.55776
 20
-6.30282
 30
0.0
 10
-4.5657
 20
-6.28282
 30
0.0
 10
-4.56421
 20
-6.24731
 30
0.0
  0
SPLINE
  5
9B
330
1F
100
AcDbEntity
  8
Plan 1
 62
   250
370
    20
100
AcDbSpline
210
0.0
220
0.0
230
1.0
 70
    11
 71
     3
 72
    17
 73
    13
 74
     0
 42
0.0000000001
 43
0.0000000001
 40
0.0
 40
0.0
 40
0.0
 40
0.0
 40
0.25
 40
0.25
 40
0.25
 40
0.5
 40
0.5
 40
0.5
 40
0.75
 40
0.75
 40
0.75
 40
1.0
 40
1.0
 40
1.0
 40
1.0
 10
-3.0323
 20
11.41805
 30
0.0
 10
-3.51678
 20
11.77476
 30
0.0
 10
-2.98338
 20
11.94463
 30
0.0
 10
-3.02919
 20
11.70014
 30
0.0
 10
-3.09599
 20
11.34417
 30
0.0
 10
-2.78074
 20
11.43804
 30
0.0
 10
-2.7266
 20
11.79922
 30
0.0
 10
-2.70102
 20
11.97007
 30
0.0
 10
-2.65869
 20
11.99006
 30
0.0
 10
-2.60691
 20
11.85584
 30
0.0
 10
-2.49293
 20
11.56084
 30
0.0
 10
-2.70201
 20
11.17494
 30
0.0
 10
-3.0323
 20
11.41805
 30
0.0
  0
SPLINE
  5
9C
330
1F
100
AcDbEntity
  8
Plan 1
 62
   250
370
    20
100
AcDbSpline
210
0.0
220
0.0
230
1.0
 70
    11
 71
     3
 72
    11
 73
     7
 74
     0
 42
0.0000000001
 43
0.0000000001
 40
0.0
 40
0.0
 40
0.0
 40
0.0
 40
0.5
 40
0.5
 40
0.5
 40
1.0
 40
1.0
 40
1.0
 40
1.0
 10
12.1969
 20
6.58515
 30
0.0
 10
12.13147
 20
6.58515
 30
0.0
 10
12.06864
 20
6.66945
 30
0.0
 10
12.10614
 20
6.70695
 30
0.0
 10
12.1332
 20
6.73401
 30
0.0
 10
12.38028
 20
6.58515
 30
0.0
 10
12.1969
 20
6.58515
 30
0.0
  0
ENDSEC
  0
SECTION
  2
OBJECTS
  0
DICTIONARY
  5
C
330
0
100
AcDbDictionary
281
     1
  3
ACAD_DETAILVIEWSTYLE
350
D8
  3
ACAD_GROUP
350
D
  3
ACAD_LAYOUT
350
1A
  3
ACAD_MATERIAL
350
43
  3
ACAD_MLEADERSTYLE
350
6B
  3
ACAD_MLINESTYLE
350
17
  3
ACAD_PLOTSETTINGS
350
19
  3
ACAD_PLOTSTYLENAME
350
E
  3
ACAD_SCALELIST
350
47
  3
ACAD_SECTIONVIEWSTYLE
350
D9
  3
ACAD_TABLESTYLE
350
69
  3
ACAD_VISUALSTYLE
350
2A
  3
ACDB_RECOMPOSE_DATA
350
D5
  3
AcDbVariableDictionary
350
9D
  0
SUN
  5
6D
330
29
100
AcDbSun
 90
        1
290
     0
 63
     7
421
 16777215
 40
1.0
291
     1
 91
  2455826
 92
 54000000
292
     0
 70
     2
 71
   256
280
     1
  0
DICTIONARY
  5
D8
102
{ACAD_REACTORS
330
C
102
}
330
C
100
AcDbDictionary
281
     1
  0
DICTIONARY
  5
D
102
{ACAD_REACTORS
330
C
102
}
330
C
100
AcDbDictionary
281
     1
  0
DICTIONARY
  5
1A
102
{ACAD_REACTORS
330
C
102
}
330
C
100
AcDbDictionary
281
     1
  3
Layout1
350
1E
  3
Layout2
350
26
  3
Model
350
22
  0
DICTIONARY
  5
43
102
{ACAD_REACTORS
330
C
102
}
330
C
100
AcDbDictionary
281
     1
  3
ByBlock
350
45
  3
ByLayer
350
44
  3
Global
350
46
  0
DICTIONARY
  5
6B
102
{ACAD_REACTORS
330
C
102
}
330
C
100
AcDbDictionary
281
     1
  3
Standard
350
6C
  0
DICTIONARY
  5
17
102
{ACAD_REACTORS
330
C
102
}
330
C
100
AcDbDictionary
281
     1
  3
Standard
350
18
  0
DICTIONARY
  5
19
102
{ACAD_REACTORS
330
C
102
}
330
C
100
AcDbDictionary
281
     1
  0
ACDBDICTIONARYWDFLT
  5
E
102
{ACAD_REACTORS
330
C
102
}
330
C
100
AcDbDictionary
281
     1
  3
Normal
350
F
100
AcDbDictionaryWithDefault
340
F
  0
DICTIONARY
  5
47
102
{ACAD_REACTORS
330
C
102
}
330
C
100
AcDbDictionary
281
     1
  3
A0
350
48
  3
A1
350
49
  3
A2
350
4A
  3
A3
350
4B
  3
A4
350
4C
  3
A5
350
4D
  3
A6
350
4E
  3
A7
350
4F
  3
A8
350
50
  3
A9
350
51
  3
B0
350
52
  3
B1
350
53
  3
B2
350
54
  3
B3
350
55
  3
B4
350
56
  3
B5
350
57
  3
B6
350
58
  3
B7
350
59
  3
B8
350
5A
  3
B9
350
5B
  3
C0
350
5C
  3
C1
350
5D
  3
C2
350
5E
  3
C3
350
5F
  3
C4
350
60
  3
C5
350
61
  3
C6
350
62
  3
C7
350
63
  3
C8
350
64
  3
C9
350
65
  3
D0
350
66
  3
D1
350
67
  3
D2
350
68
  0
DICTIONARY
  5
D9
102
{ACAD_REACTORS
330
C
102
}
330
C
100
AcDbDictionary
281
     1
  0
DICTIONARY
  5
69
102
{ACAD_REACTORS
330
C
102
}
330
C
100
AcDbDictionary
281
     1
  3
Standard
350
6A
  0
DICTIONARY
  5
2A
102
{ACAD_REACTORS
330
C
102
}
330
C
100
AcDbDictionary
281
     1
  3
2dWireframe
350
2F
  3
Basic
350
32
  3
Brighten
350
36
  3
ColorChange
350
3A
  3
Conceptual
350
34
  3
Dim
350
35
  3
EdgeColorOff
350
3D
  3
Facepattern
350
39
  3
Flat
350
2B
  3
FlatWithEdges
350
2C
  3
Gouraud
350
2D
  3
GouraudWithEdges
350
2E
  3
Hidden
350
31
  3
JitterOff
350
3B
  3
Linepattern
350
38
  3
OverhangOff
350
3C
  3
Realistic
350
33
  3
Shaded
350
42
  3
Shaded with edges
350
41
  3
Shades of Gray
350
3E
  3
Sketchy
350
3F
  3
Thicken
350
37
  3
Wireframe
350
30
  3
X-Ray
350
40
  0
XRECORD
  5
D5
102
{ACAD_REACTORS
330
C
102
}
330
C
100
AcDbXrecord
280
     1
 90
        1
330
6A
  0
DICTIONARY
  5
9D
102
{ACAD_REACTORS
330
C
102
}
330
C
100
AcDbDictionary
281
     1
  3
CANNOSCALE
350
9E
  3
CMLEADERSTYLE
350
D7
  3
CTABLESTYLE
350
D6
  3
XCLIPFRAME
350
9F
  0
LAYOUT
  5
1E
102
{ACAD_REACTORS
330
1A
102
}
330
1A
100
AcDbPlotSettings
  1

  2
none_device
  4

  6

 40
0.0
 41
0.0
 42
0.0
 43
0.0
 44
0.0
 45
0.0
 46
0.0
 47
0.0
 48
0.0
 49
0.0
140
0.0
141
0.0
142
1.0
143
1.0
 70
   688
 72
     0
 73
     0
 74
     5
  7

 75
    16
 76
     0
 77
     2
 78
   300
147
1.0
148
0.0
149
0.0
100
AcDbLayout
  1
Layout1
 70
     1
 71
     1
 10
0.0
 20
0.0
 11
12.0
 21
9.0
 12
0.0
 22
0.0
 32
0.0
 14
1.000000000000000E+20
 24
1.000000000000000E+20
 34
1.000000000000000E+20
 15
-1.000000000000000E+20
 25
-1.000000000000000E+20
 35
-1.000000000000000E+20
146
0.0
 13
0.0
 23
0.0
 33
0.0
 16
1.0
 26
0.0
 36
0.0
 17
0.0
 27
1.0
 37
0.0
 76
     0
330
1B
  0
LAYOUT
  5
26
102
{ACAD_REACTORS
330
1A
102
}
330
1A
100
AcDbPlotSettings
  1

  2
none_device
  4

  6

 40
0.0
 41
0.0
 42
0.0
 43
0.0
 44
0.0
 45
0.0
 46
0.0
 47
0.0
 48
0.0
 49
0.0
140
0.0
141
0.0
142
1.0
143
1.0
 70
   688
 72
     0
 73
     0
 74
     5
  7

 75
    16
 76
     0
 77
     2
 78
   300
147
1.0
148
0.0
149
0.0
100
AcDbLayout
  1
Layout2
 70
     1
 71
     2
 10
0.0
 20
0.0
 11
0.0
 21
0.0
 12
0.0
 22
0.0
 32
0.0
 14
0.0
 24
0.0
 34
0.0
 15
0.0
 25
0.0
 35
0.0
146
0.0
 13
0.0
 23
0.0
 33
0.0
 16
1.0
 26
0.0
 36
0.0
 17
0.0
 27
1.0
 37
0.0
 76
     0
330
23
  0
LAYOUT
  5
22
102
{ACAD_REACTORS
330
1A
102
}
330
1A
100
AcDbPlotSettings
  1

  2
none_device
  4
Letter_(8.50_x_11.00_Inches)
  6

 40
6.35
 41
6.35
 42
6.35000508
 43
6.35000508
 44
215.9
 45
279.4
 46
0.0
 47
0.0
 48
0.0
 49
0.0
140
0.0
141
0.0
142
1.0
143
1.0
 70
  1712
 72
     0
 73
     0
 74
     0
  7

 75
     0
 76
     0
 77
     2
 78
   300
147
1.0
148
0.0
149
0.0
100
AcDbLayout
  1
Model
 70
     1
 71
     0
 10
0.0
 20
0.0
 11
12.0
 21
9.0
 12
0.0
 22
0.0
 32
0.0
 14
-9.1635
 24
-9.67157
 34
0.0
 15
14.55254
 25
14.14391
 35
0.0
146
0.0
 13
0.0
 23
0.0
 33
0.0
 16
1.0
 26
0.0
 36
0.0
 17
0.0
 27
1.0
 37
0.0
 76
     0
330
1F
331
29
  0
MATERIAL
  5
45
102
{ACAD_REACTORS
330
43
102
}
330
43
100
AcDbMaterial
  1
ByBlock
 72
     1
 94
      127
  0
MATERIAL
  5
44
102
{ACAD_REACTORS
330
43
102
}
330
43
100
AcDbMaterial
  1
ByLayer
 72
     1
 94
      127
  0
MATERIAL
  5
46
102
{ACAD_REACTORS
330
43
102
}
330
43
100
AcDbMaterial
  1
Global
 72
     1
 94
      127
  0
MLEADERSTYLE
  5
6C
102
{ACAD_REACTORS
330
6B
102
}
102
{ACAD_XDICTIONARY
360
D3
102
}
330
6B
100
AcDbMLeaderStyle
170
     2
171
     1
172
     0
 90
        2
 40
0.0
 41
0.0
173
     1
 91
-1056964608
340
14
 92
       -2
290
     1
 42
0.09
291
     1
 43
0.36
  3
Standard
341
0
 44
0.18
300

342
11
174
     1
178
     6
175
     1
176
     0
 93
-1056964608
 45
0.18
292
     0
297
     0
 46
0.18
343
0
 94
-1056964608
 47
1.0
 49
1.0
140
1.0
293
     1
141
0.0
294
     1
177
     0
142
1.0
295
     0
296
     0
143
0.125
1001
ACAD_MLEADERVER
1070
     2
  0
MLINESTYLE
  5
18
102
{ACAD_REACTORS
330
17
102
}
330
17
100
AcDbMlineStyle
  2
Standard
 70
     0
  3

 62
   256
 51
90.0
 52
90.0
 71
     2
 49
0.5
 62
   256
  6
BYLAYER
 49
-0.5
 62
   256
  6
BYLAYER
  0
ACDBPLACEHOLDER
  5
F
102
{ACAD_REACTORS
330
E
102
}
330
E
  0
SCALE
  5
48
102
{ACAD_REACTORS
330
47
102
}
330
47
100
AcDbScale
 70
     0
300
1:1
140
1.0
141
1.0
290
     1
  0
SCALE
  5
49
102
{ACAD_REACTORS
330
47
102
}
330
47
100
AcDbScale
 70
     0
300
1:2
140
1.0
141
2.0
290
     0
  0
SCALE
  5
4A
102
{ACAD_REACTORS
330
47
102
}
330
47
100
AcDbScale
 70
     0
300
1:4
140
1.0
141
4.0
290
     0
  0
SCALE
  5
4B
102
{ACAD_REACTORS
330
47
102
}
330
47
100
AcDbScale
 70
     0
300
1:5
140
1.0
141
5.0
290
     0
  0
SCALE
  5
4C
102
{ACAD_REACTORS
330
47
102
}
330
47
100
AcDbScale
 70
     0
300
1:8
140
1.0
141
8.0
290
     0
  0
SCALE
  5
4D
102
{ACAD_REACTORS
330
47
102
}
330
47
100
AcDbScale
 70
     0
300
1:10
140
1.0
141
10.0
290
     0
  0
SCALE
  5
4E
102
{ACAD_REACTORS
330
47
102
}
330
47
100
AcDbScale
 70
     0
300
1:16
140
1.0
141
16.0
290
     0
  0
SCALE
  5
4F
102
{ACAD_REACTORS
330
47
102
}
330
47
100
AcDbScale
 70
     0
300
1:20
140
1.0
141
20.0
290
     0
  0
SCALE
  5
50
102
{ACAD_REACTORS
330
47
102
}
330
47
100
AcDbScale
 70
     0
300
1:30
140
1.0
141
30.0
290
     0
  0
SCALE
  5
51
102
{ACAD_REACTORS
330
47
102
}
330
47
100
AcDbScale
 70
     0
300
1:40
140
1.0
141
40.0
290
     0
  0
SCALE
  5
52
102
{ACAD_REACTORS
330
47
102
}
330
47
100
AcDbScale
 70
     0
300
1:50
140
1.0
141
50.0
290
     0
  0
SCALE
  5
53
102
{ACAD_REACTORS
330
47
102
}
330
47
100
AcDbScale
 70
     0
300
1:100
140
1.0
141
100.0
290
     0
  0
SCALE
  5
54
102
{ACAD_REACTORS
330
47
102
}
330
47
100
AcDbScale
 70
     0
300
2:1
140
2.0
141
1.0
290
     0
  0
SCALE
  5
55
102
{ACAD_REACTORS
330
47
102
}
330
47
100
AcDbScale
 70
     0
300
4:1
140
4.0
141
1.0
290
     0
  0
SCALE
  5
56
102
{ACAD_REACTORS
330
47
102
}
330
47
100
AcDbScale
 70
     0
300
8:1
140
8.0
141
1.0
290
     0
  0
SCALE
  5
57
102
{ACAD_REACTORS
330
47
102
}
330
47
100
AcDbScale
 70
     0
300
10:1
140
10.0
141
1.0
290
     0
  0
SCALE
  5
58
102
{ACAD_REACTORS
330
47
102
}
330
47
100
AcDbScale
 70
     0
300
100:1
140
100.0
141
1.0
290
     0
  0
SCALE
  5
59
102
{ACAD_REACTORS
330
47
102
}
330
47
100
AcDbScale
 70
     0
300
1/128" = 1'-0"
140
0.0078125
141
12.0
290
     0
  0
SCALE
  5
5A
102
{ACAD_REACTORS
330
47
102
}
330
47
100
AcDbScale
 70
     0
300
1/64" = 1'-0"
140
0.015625
141
12.0
290
     0
  0
SCALE
  5
5B
102
{ACAD_REACTORS
330
47
102
}
330
47
100
AcDbScale
 70
     0
300
1/32" = 1'-0"
140
0.03125
141
12.0
290
     0
  0
SCALE
  5
5C
102
{ACAD_REACTORS
330
47
102
}
330
47
100
AcDbScale
 70
     0
300
1/16" = 1'-0"
140
0.0625
141
12.0
290
     0
  0
SCALE
  5
5D
102
{ACAD_REACTORS
330
47
102
}
330
47
100
AcDbScale
 70
     0
300
3/32" = 1'-0"
140
0.09375
141
12.0
290
     0
  0
SCALE
  5
5E
102
{ACAD_REACTORS
330
47
102
}
330
47
100
AcDbScale
 70
     0
300
1/8" = 1'-0"
140
0.125
141
12.0
290
     0
  0
SCALE
  5
5F
102
{ACAD_REACTORS
330
47
102
}
330
47
100
AcDbScale
 70
     0
300
3/16" = 1'-0"
140
0.1875
141
12.0
290
     0
  0
SCALE
  5
60
102
{ACAD_REACTORS
330
47
102
}
330
47
100
AcDbScale
 70
     0
300
1/4" = 1'-0"
140
0.25
141
12.0
290
     0
  0
SCALE
  5
61
102
{ACAD_REACTORS
330
47
102
}
330
47
100
AcDbScale
 70
     0
300
3/8" = 1'-0"
140
0.375
141
12.0
290
     0
  0
SCALE
  5
62
102
{ACAD_REACTORS
330
47
102
}
330
47
100
AcDbScale
 70
     0
300
1/2" = 1'-0"
140
0.5
141
12.0
290
     0
  0
SCALE
  5
63
102
{ACAD_REACTORS
330
47
102
}
330
47
100
AcDbScale
 70
     0
300
3/4" = 1'-0"
140
0.75
141
12.0
290
     0
  0
SCALE
  5
64
102
{ACAD_REACTORS
330
47
102
}
330
47
100
AcDbScale
 70
     0
300
1" = 1'-0"
140
1.0
141
12.0
290
     0
  0
SCALE
  5
65
102
{ACAD_REACTORS
330
47
102
}
330
47
100
AcDbScale
 70
     0
300
1-1/2" = 1'-0"
140
1.5
141
12.0
290
     0
  0
SCALE
  5
66
102
{ACAD_REACTORS
330
47
102
}
330
47
100
AcDbScale
 70
     0
300
3" = 1'-0"
140
3.0
141
12.0
290
     0
  0
SCALE
  5
67
102
{ACAD_REACTORS
330
47
102
}
330
47
100
AcDbScale
 70
     0
300
6" = 1'-0"
140
6.0
141
12.0
290
     0
  0
SCALE
  5
68
102
{ACAD_REACTORS
330
47
102
}
330
47
100
AcDbScale
 70
     0
300
1'-0" = 1'-0"
140
12.0
141
12.0
290
     0
  0
TABLESTYLE
  5
6A
102
{ACAD_REACTORS
330
69
102
}
102
{ACAD_XDICTIONARY
360
D0
102
}
330
69
100
AcDbTableStyle
  3
Standard
 70
     0
 71
     0
 40
0.06
 41
0.06
280
     0
281
     0
  7
Standard
140
0.18
170
     2
 62
     0
 63
   257
283
     0
 90
        4
 91
        0
  1

274
    -2
284
     1
 64
     0
275
    -2
285
     1
 65
     0
276
    -2
286
     1
 66
     0
277
    -2
287
     1
 67
     0
278
    -2
288
     1
 68
     0
279
    -2
289
     1
 69
     0
  7
Standard
140
0.25
170
     5
 62
     0
 63
   257
283
     0
 90
        4
 91
        0
  1

274
    -2
284
     1
 64
     0
275
    -2
285
     1
 65
     0
276
    -2
286
     1
 66
     0
277
    -2
287
     1
 67
     0
278
    -2
288
     1
 68
     0
279
    -2
289
     1
 69
     0
  7
Standard
140
0.18
170
     5
 62
     0
 63
   257
283
     0
 90
        4
 91
        0
  1

274
    -2
284
     1
 64
     0
275
    -2
285
     1
 65
     0
276
    -2
286
     1
 66
     0
277
    -2
287
     1
 67
     0
278
    -2
288
     1
 68
     0
279
    -2
289
     1
 69
     0
  0
VISUALSTYLE
  5
2F
102
{ACAD_REACTORS
330
2A
102
}
102
{ACAD_XDICTIONARY
360
A8
102
}
330
2A
100
AcDbVisualStyle
  2
2dWireframe
 70
     4
 71
     0
 72
     2
 73
     0
 90
        0
 40
0.6
 41
30.0
 62
     5
 63
     7
421
 16777215
 74
     1
 91
        4
 64
     7
 65
   257
 75
     1
175
     1
 42
1.0
 92
        0
 66
   257
 43
1.0
 76
     1
 77
     6
 78
     2
 67
     7
 79
     5
170
     0
171
     0
290
     0
174
     0
 93
        1
 44
0.0
173
     0
291
     0
 45
0.0
  0
VISUALSTYLE
  5
32
102
{ACAD_REACTORS
330
2A
102
}
102
{ACAD_XDICTIONARY
360
AE
102
}
330
2A
100
AcDbVisualStyle
  2
Basic
 70
     7
 71
     1
 72
     0
 73
     1
 90
        0
 40
0.6
 41
30.0
 62
     5
 63
     7
421
 16777215
 74
     0
 91
        4
 64
     7
 65
   257
 75
     1
175
     1
 42
1.0
 92
        8
 66
     7
 43
1.0
 76
     1
 77
     6
 78
     2
 67
     7
 79
     5
170
     0
171
     0
290
     0
174
     0
 93
        1
 44
0.0
173
     0
291
     1
 45
0.0
  0
VISUALSTYLE
  5
36
102
{ACAD_REACTORS
330
2A
102
}
102
{ACAD_XDICTIONARY
360
B6
102
}
330
2A
100
AcDbVisualStyle
  2
Brighten
 70
    12
 71
     2
 72
     2
 73
     0
 90
        0
 40
0.6
 41
30.0
 62
     5
 63
     7
421
 16777215
 74
     1
 91
        4
 64
     7
 65
   257
 75
     1
175
     1
 42
1.0
 92
        8
 66
     7
 43
1.0
 76
     1
 77
     6
 78
     2
 67
     7
 79
     5
170
     0
171
     0
290
     0
174
     0
 93
        1
 44
50.0
173
     0
291
     1
 45
0.0
  0
VISUALSTYLE
  5
3A
102
{ACAD_REACTORS
330
2A
102
}
102
{ACAD_XDICTIONARY
360
BE
102
}
330
2A
100
AcDbVisualStyle
  2
ColorChange
 70
    16
 71
     2
 72
     2
 73
     3
 90
        0
 40
0.6
 41
30.0
 62
     5
 63
     8
421
  8421504
 74
     1
 91
        4
 64
     7
 65
   257
 75
     1
175
     1
 42
1.0
 92
        8
 66
     8
424
  8421504
 43
1.0
 76
     1
 77
     6
 78
     2
 67
     7
 79
     5
170
     0
171
     0
290
     0
174
     0
 93
        1
 44
0.0
173
     0
291
     1
 45
0.0
  0
VISUALSTYLE
  5
34
102
{ACAD_REACTORS
330
2A
102
}
102
{ACAD_XDICTIONARY
360
B2
102
}
330
2A
100
AcDbVisualStyle
  2
Conceptual
 70
     9
 71
     3
 72
     2
 73
     0
 90
        0
 40
0.6
 41
30.0
 62
     5
 63
     7
421
 16777215
 74
     2
 91
        2
 64
     7
 65
   257
 75
     1
175
     1
 42
179.0
 92
        8
 66
     7
 43
1.0
 76
     1
 77
     6
 78
     2
 67
     7
 79
     3
170
     0
171
     0
290
     0
174
     0
 93
        1
 44
0.0
173
     0
291
     0
 45
0.0
  0
VISUALSTYLE
  5
35
102
{ACAD_REACTORS
330
2A
102
}
102
{ACAD_XDICTIONARY
360
B4
102
}
330
2A
100
AcDbVisualStyle
  2
Dim
 70
    11
 71
     2
 72
     2
 73
     0
 90
        0
 40
0.6
 41
30.0
 62
     5
 63
     7
421
 16777215
 74
     1
 91
        4
 64
     7
 65
   257
 75
     1
175
     1
 42
1.0
 92
        8
 66
     7
 43
1.0
 76
     1
 77
     6
 78
     2
 67
     7
 79
     5
170
     0
171
     0
290
     0
174
     0
 93
        1
 44
-50.0
173
     0
291
     1
 45
0.0
  0
VISUALSTYLE
  5
3D
102
{ACAD_REACTORS
330
2A
102
}
102
{ACAD_XDICTIONARY
360
C4
102
}
330
2A
100
AcDbVisualStyle
  2
EdgeColorOff
 70
    22
 71
     2
 72
     2
 73
     0
 90
        0
 40
0.6
 41
30.0
 62
     5
 63
     7
421
 16777215
 74
     1
 91
        4
 64
     7
 65
   257
 75
     1
175
     1
 42
1.0
 92
        8
 66
     7
 43
1.0
 76
     1
 77
     6
 78
     2
 67
     7
 79
     5
170
     0
171
     0
290
     0
174
     0
 93
        1
 44
0.0
173
     0
291
     1
 45
0.0
  0
VISUALSTYLE
  5
39
102
{ACAD_REACTORS
330
2A
102
}
102
{ACAD_XDICTIONARY
360
BC
102
}
330
2A
100
AcDbVisualStyle
  2
Facepattern
 70
    15
 71
     2
 72
     2
 73
     0
 90
        0
 40
0.6
 41
30.0
 62
     5
 63
     7
421
 16777215
 74
     1
 91
        4
 64
     7
 65
   257
 75
     1
175
     1
 42
1.0
 92
        8
 66
     7
 43
1.0
 76
     1
 77
     6
 78
     2
 67
     7
 79
     5
170
     0
171
     0
290
     0
174
     0
 93
        1
 44
0.0
173
     0
291
     1
 45
0.0
  0
VISUALSTYLE
  5
2B
102
{ACAD_REACTORS
330
2A
102
}
102
{ACAD_XDICTIONARY
360
A0
102
}
330
2A
100
AcDbVisualStyle
  2
Flat
 70
     0
 71
     2
 72
     1
 73
     1
 90
        2
 40
0.6
 41
30.0
 62
     5
 63
     7
421
 16777215
 74
     0
 91
        0
 64
     7
 65
   257
 75
     1
175
     1
 42
1.0
 92
        8
 66
     7
 43
1.0
 76
     1
 77
     6
 78
     2
 67
     7
 79
     5
170
     0
171
     0
290
     0
174
     0
 93
       13
 44
0.0
173
     0
291
     1
 45
0.0
  0
VISUALSTYLE
  5
2C
102
{ACAD_REACTORS
330
2A
102
}
102
{ACAD_XDICTIONARY
360
A2
102
}
330
2A
100
AcDbVisualStyle
  2
FlatWithEdges
 70
     1
 71
     2
 72
     1
 73
     1
 90
        2
 40
0.6
 41
30.0
 62
     5
 63
     7
421
 16777215
 74
     1
 91
        0
 64
     7
 65
   257
 75
     1
175
     1
 42
1.0
 92
        0
 66
   257
 43
1.0
 76
     1
 77
     6
 78
     2
 67
     7
 79
     5
170
     0
171
     0
290
     0
174
     0
 93
       13
 44
0.0
173
     0
291
     1
 45
0.0
  0
VISUALSTYLE
  5
2D
102
{ACAD_REACTORS
330
2A
102
}
102
{ACAD_XDICTIONARY
360
A4
102
}
330
2A
100
AcDbVisualStyle
  2
Gouraud
 70
     2
 71
     2
 72
     2
 73
     1
 90
        2
 40
0.6
 41
30.0
 62
     5
 63
     7
421
 16777215
 74
     0
 91
        0
 64
     7
 65
   257
 75
     1
175
     1
 42
1.0
 92
        0
 66
     7
 43
1.0
 76
     1
 77
     6
 78
     2
 67
     7
 79
     5
170
     0
171
     0
290
     0
174
     0
 93
       13
 44
0.0
173
     0
291
     1
 45
0.0
  0
VISUALSTYLE
  5
2E
102
{ACAD_REACTORS
330
2A
102
}
102
{ACAD_XDICTIONARY
360
A6
102
}
330
2A
100
AcDbVisualStyle
  2
GouraudWithEdges
 70
     3
 71
     2
 72
     2
 73
     1
 90
        2
 40
0.6
 41
30.0
 62
     5
 63
     7
421
 16777215
 74
     1
 91
        0
 64
     7
 65
   257
 75
     1
175
     1
 42
1.0
 92
        0
 66
   257
 43
1.0
 76
     1
 77
     6
 78
     2
 67
     7
 79
     5
170
     0
171
     0
290
     0
174
     0
 93
       13
 44
0.0
173
     0
291
     1
 45
0.0
  0
VISUALSTYLE
  5
31
102
{ACAD_REACTORS
330
2A
102
}
102
{ACAD_XDICTIONARY
360
AC
102
}
330
2A
100
AcDbVisualStyle
  2
Hidden
 70
     6
 71
     1
 72
     2
 73
     2
 90
        0
 40
0.6
 41
30.0
 62
     5
 63
     7
421
 16777215
 74
     2
 91
        2
 64
     7
 65
   257
 75
     2
175
     1
 42
40.0
 92
        0
 66
   257
 43
1.0
 76
     1
 77
     6
 78
     2
 67
     7
 79
     3
170
     0
171
     0
290
     0
174
     0
 93
        1
 44
0.0
173
     0
291
     0
 45
0.0
  0
VISUALSTYLE
  5
3B
102
{ACAD_REACTORS
330
2A
102
}
102
{ACAD_XDICTIONARY
360
C0
102
}
330
2A
100
AcDbVisualStyle
  2
JitterOff
 70
    20
 71
     2
 72
     2
 73
     0
 90
        0
 40
0.6
 41
30.0
 62
     5
 63
     7
421
 16777215
 74
     1
 91
        4
 64
     7
 65
   257
 75
     1
175
     1
 42
1.0
 92
       10
 66
     7
 43
1.0
 76
     1
 77
     6
 78
     2
 67
     7
 79
     5
170
     0
171
     0
290
     0
174
     0
 93
        1
 44
0.0
173
     0
291
     1
 45
0.0
  0
VISUALSTYLE
  5
38
102
{ACAD_REACTORS
330
2A
102
}
102
{ACAD_XDICTIONARY
360
BA
102
}
330
2A
100
AcDbVisualStyle
  2
Linepattern
 70
    14
 71
     2
 72
     2
 73
     0
 90
        0
 40
0.6
 41
30.0
 62
     5
 63
     7
421
 16777215
 74
     1
 91
        4
 64
     7
 65
   257
 75
     7
175
     7
 42
1.0
 92
        8
 66
     7
 43
1.0
 76
     1
 77
     6
 78
     2
 67
     7
 79
     5
170
     0
171
     0
290
     0
174
     0
 93
        1
 44
0.0
173
     0
291
     1
 45
0.0
  0
VISUALSTYLE
  5
3C
102
{ACAD_REACTORS
330
2A
102
}
102
{ACAD_XDICTIONARY
360
C2
102
}
330
2A
100
AcDbVisualStyle
  2
OverhangOff
 70
    21
 71
     2
 72
     2
 73
     0
 90
        0
 40
0.6
 41
30.0
 62
     5
 63
     7
421
 16777215
 74
     1
 91
        4
 64
     7
 65
   257
 75
     1
175
     1
 42
1.0
 92
        9
 66
     7
 43
1.0
 76
     1
 77
     6
 78
     2
 67
     7
 79
     5
170
     0
171
     0
290
     0
174
     0
 93
        1
 44
0.0
173
     0
291
     1
 45
0.0
  0
VISUALSTYLE
  5
33
102
{ACAD_REACTORS
330
2A
102
}
102
{ACAD_XDICTIONARY
360
B0
102
}
330
2A
100
AcDbVisualStyle
  2
Realistic
 70
     8
 71
     2
 72
     3
 73
     0
 90
        2
 40
0.6
 41
30.0
 62
     5
 63
     7
421
 16777215
 74
     0
 91
        0
 64
     7
 65
   257
 75
     1
175
     1
 42
1.0
 92
        8
 66
   257
 43
1.0
 76
     1
 77
     6
 78
     2
 67
     7
 79
     3
170
     0
171
     0
290
     0
174
     0
 93
       13
 44
0.0
173
     0
291
     0
 45
0.0
  0
VISUALSTYLE
  5
42
102
{ACAD_REACTORS
330
2A
102
}
102
{ACAD_XDICTIONARY
360
CE
102
}
330
2A
100
AcDbVisualStyle
  2
Shaded
 70
    27
 71
     2
 72
     2
 73
     1
 90
        2
 40
0.6
 41
30.0
 62
     5
 63
     7
421
 16777215
 74
     0
 91
        4
 64
     7
 65
   257
 75
     1
175
     1
 42
1.0
 92
        8
 66
   257
 43
1.0
 76
     1
 77
     6
 78
     2
 67
     8
425
  7895160
 79
     3
170
     0
171
     0
290
     0
174
     0
 93
        5
 44
0.0
173
     0
291
     0
 45
0.0
  0
VISUALSTYLE
  5
41
102
{ACAD_REACTORS
330
2A
102
}
102
{ACAD_XDICTIONARY
360
CC
102
}
330
2A
100
AcDbVisualStyle
  2
Shaded with edges
 70
    26
 71
     2
 72
     2
 73
     1
 90
        2
 40
0.6
 41
30.0
 62
     5
 63
     7
421
 16777215
 74
     1
 91
       10
 64
     7
 65
   257
 75
     2
175
     1
 42
1.0
 92
        8
 66
   257
 43
1.0
 76
     1
 77
     6
 78
     2
 67
     7
 79
     3
170
     0
171
     0
290
     0
174
     0
 93
        5
 44
0.0
173
     0
291
     0
 45
0.0
  0
VISUALSTYLE
  5
3E
102
{ACAD_REACTORS
330
2A
102
}
102
{ACAD_XDICTIONARY
360
C6
102
}
330
2A
100
AcDbVisualStyle
  2
Shades of Gray
 70
    23
 71
     2
 72
     2
 73
     3
 90
        0
 40
0.6
 41
30.0
 62
     5
 63
     7
421
 16777215
 74
     2
 91
        2
 64
     7
 65
     7
 75
     1
175
     1
 42
40.0
 92
        8
 66
     7
 43
1.0
 76
     1
 77
     6
 78
     2
 67
     7
 79
     3
170
     0
171
     0
290
     0
174
     0
 93
        1
 44
0.0
173
     0
291
     0
 45
0.0
  0
VISUALSTYLE
  5
3F
102
{ACAD_REACTORS
330
2A
102
}
102
{ACAD_XDICTIONARY
360
C8
102
}
330
2A
100
AcDbVisualStyle
  2
Sketchy
 70
    24
 71
     1
 72
     2
 73
     2
 90
        0
 40
0.6
 41
30.0
 62
     5
 63
     7
421
 16777215
 74
     2
 91
        2
 64
     7
 65
     7
 75
     1
175
     1
 42
40.0
 92
       11
 66
     7
 43
1.0
 76
     1
 77
     6
 78
     2
 67
     7
 79
     6
170
     0
171
     0
290
     0
174
     0
 93
        1
 44
0.0
173
     0
291
     0
 45
0.0
  0
VISUALSTYLE
  5
37
102
{ACAD_REACTORS
330
2A
102
}
102
{ACAD_XDICTIONARY
360
B8
102
}
330
2A
100
AcDbVisualStyle
  2
Thicken
 70
    13
 71
     2
 72
     2
 73
     0
 90
        0
 40
0.6
 41
30.0
 62
     5
 63
     7
421
 16777215
 74
     1
 91
        4
 64
     7
 65
   257
 75
     1
175
     1
 42
1.0
 92
       12
 66
     7
 43
1.0
 76
     1
 77
     6
 78
     2
 67
     7
 79
     5
170
     0
171
     0
290
     0
174
     0
 93
        1
 44
0.0
173
     0
291
     1
 45
0.0
  0
VISUALSTYLE
  5
30
102
{ACAD_REACTORS
330
2A
102
}
102
{ACAD_XDICTIONARY
360
AA
102
}
330
2A
100
AcDbVisualStyle
  2
Wireframe
 70
     5
 71
     0
 72
     2
 73
     0
 90
        0
 40
0.6
 41
30.0
 62
     5
 63
     7
421
 16777215
 74
     1
 91
        4
 64
     7
 65
   257
 75
     1
175
     1
 42
1.0
 92
        0
 66
   257
 43
1.0
 76
     1
 77
     6
 78
     2
 67
     7
 79
     3
170
     0
171
     0
290
     0
174
     0
 93
        1
 44
0.0
173
     0
291
     0
 45
0.0
  0
VISUALSTYLE
  5
40
102
{ACAD_REACTORS
330
2A
102
}
102
{ACAD_XDICTIONARY
360
CA
102
}
330
2A
100
AcDbVisualStyle
  2
X-Ray
 70
    25
 71
     2
 72
     2
 73
     1
 90
        1
 40
0.5
 41
30.0
 62
     5
 63
     7
421
 16777215
 74
     1
 91
        0
 64
     7
 65
   257
 75
     1
175
     1
 42
1.0
 92
        8
 66
     7
 43
1.0
 76
     1
 77
     6
 78
     2
 67
     7
 79
     3
170
     0
171
     0
290
     0
174
     0
 93
       13
 44
0.0
173
     0
291
     0
 45
0.0
  0
DICTIONARYVAR
  5
9E
102
{ACAD_REACTORS
330
9D
102
}
330
9D
100
DictionaryVariables
280
     0
  1
1:1
  0
DICTIONARYVAR
  5
D7
102
{ACAD_REACTORS
330
9D
102
}
330
9D
100
DictionaryVariables
280
     0
  1
Standard
  0
DICTIONARYVAR
  5
D6
102
{ACAD_REACTORS
330
9D
102
}
330
9D
100
DictionaryVariables
280
     0
  1
Standard
  0
DICTIONARYVAR
  5
9F
102
{ACAD_REACTORS
330
9D
102
}
330
9D
100
DictionaryVariables
280
     0
  1
2
  0
DICTIONARY
  5
D3
330
6C
100
AcDbDictionary
280
     1
281
     1
  3
ACAD_XREC_ROUNDTRIP
360
D4
  0
DICTIONARY
  5
D0
330
6A
100
AcDbDictionary
280
     1
281
     1
  3
ACAD_ROUNDTRIP_2008_TABLESTYLE_CELLSTYLEMAP
360
D1
  0
DICTIONARY
  5
A8
330
2F
100
AcDbDictionary
280
     1
281
     1
  3
ACAD_XREC_ROUNDTRIP
360
A9
  0
DICTIONARY
  5
AE
330
32
100
AcDbDictionary
280
     1
281
     1
  3
ACAD_XREC_ROUNDTRIP
360
AF
  0
DICTIONARY
  5
B6
330
36
100
AcDbDictionary
280
     1
281
     1
  3
ACAD_XREC_ROUNDTRIP
360
B7
  0
DICTIONARY
  5
BE
330
3A
100
AcDbDictionary
280
     1
281
     1
  3
ACAD_XREC_ROUNDTRIP
360
BF
  0
DICTIONARY
  5
B2
330
34
100
AcDbDictionary
280
     1
281
     1
  3
ACAD_XREC_ROUNDTRIP
360
B3
  0
DICTIONARY
  5
B4
330
35
100
AcDbDictionary
280
     1
281
     1
  3
ACAD_XREC_ROUNDTRIP
360
B5
  0
DICTIONARY
  5
C4
330
3D
100
AcDbDictionary
280
     1
281
     1
  3
ACAD_XREC_ROUNDTRIP
360
C5
  0
DICTIONARY
  5
BC
330
39
100
AcDbDictionary
280
     1
281
     1
  3
ACAD_XREC_ROUNDTRIP
360
BD
  0
DICTIONARY
  5
A0
330
2B
100
AcDbDictionary
280
     1
281
     1
  3
ACAD_XREC_ROUNDTRIP
360
A1
  0
DICTIONARY
  5
A2
330
2C
100
AcDbDictionary
280
     1
281
     1
  3
ACAD_XREC_ROUNDTRIP
360
A3
  0
DICTIONARY
  5
A4
330
2D
100
AcDbDictionary
280
     1
281
     1
  3
ACAD_XREC_ROUNDTRIP
360
A5
  0
DICTIONARY
  5
A6
330
2E
100
AcDbDictionary
280
     1
281
     1
  3
ACAD_XREC_ROUNDTRIP
360
A7
  0
DICTIONARY
  5
AC
330
31
100
AcDbDictionary
280
     1
281
     1
  3
ACAD_XREC_ROUNDTRIP
360
AD
  0
DICTIONARY
  5
C0
330
3B
100
AcDbDictionary
280
     1
281
     1
  3
ACAD_XREC_ROUNDTRIP
360
C1
  0
DICTIONARY
  5
BA
330
38
100
AcDbDictionary
280
     1
281
     1
  3
ACAD_XREC_ROUNDTRIP
360
BB
  0
DICTIONARY
  5
C2
330
3C
100
AcDbDictionary
280
     1
281
     1
  3
ACAD_XREC_ROUNDTRIP
360
C3
  0
DICTIONARY
  5
B0
330
33
100
AcDbDictionary
280
     1
281
     1
  3
ACAD_XREC_ROUNDTRIP
360
B1
  0
DICTIONARY
  5
CE
330
42
100
AcDbDictionary
280
     1
281
     1
  3
ACAD_XREC_ROUNDTRIP
360
CF
  0
DICTIONARY
  5
CC
330
41
100
AcDbDictionary
280
     1
281
     1
  3
ACAD_XREC_ROUNDTRIP
360
CD
  0
DICTIONARY
  5
C6
330
3E
100
AcDbDictionary
280
     1
281
     1
  3
ACAD_XREC_ROUNDTRIP
360
C7
  0
DICTIONARY
  5
C8
330
3F
100
AcDbDictionary
280
     1
281
     1
  3
ACAD_XREC_ROUNDTRIP
360
C9
  0
DICTIONARY
  5
B8
330
37
100
AcDbDictionary
280
     1
281
     1
  3
ACAD_XREC_ROUNDTRIP
360
B9
  0
DICTIONARY
  5
AA
330
30
100
AcDbDictionary
280
     1
281
     1
  3
ACAD_XREC_ROUNDTRIP
360
AB
  0
DICTIONARY
  5
CA
330
40
100
AcDbDictionary
280
     1
281
     1
  3
ACAD_XREC_ROUNDTRIP
360
CB
  0
XRECORD
  5
D4
102
{ACAD_REACTORS
330
D3
102
}
330
D3
100
AcDbXrecord
280
     1
102
ACAD_ROUNDTRIP_2010_MLEADER_STYLE
  0
CELLSTYLEMAP
  5
D1
102
{ACAD_REACTORS
330
D0
102
}
330
D0
100
AcDbCellStyleMap
 90
        3
300
CELLSTYLE
  1
TABLEFORMAT_BEGIN
 90
        5
170
     1
 91
        0
 92
    32768
 62
   257
 93
        1
300
CONTENTFORMAT
  1
CONTENTFORMAT_BEGIN
 90
        0
 91
        0
 92
        4
 93
        0
300

 40
0.0
140
1.0
 94
        5
 62
     0
340
11
144
0.25
309
CONTENTFORMAT_END
171
     1
301
MARGIN
  1
CELLMARGIN_BEGIN
 40
0.06
 40
0.06
 40
0.06
 40
0.06
 40
0.06
 40
0.06
309
CELLMARGIN_END
 94
        6
 95
        1
302
GRIDFORMAT
  1
GRIDFORMAT_BEGIN
 90
        0
 91
        1
 62
     0
 92
       -2
340
14
 93
        0
 40
0.045
309
GRIDFORMAT_END
 95
        2
302
GRIDFORMAT
  1
GRIDFORMAT_BEGIN
 90
        0
 91
        1
 62
     0
 92
       -2
340
14
 93
        0
 40
0.045
309
GRIDFORMAT_END
 95
        4
302
GRIDFORMAT
  1
GRIDFORMAT_BEGIN
 90
        0
 91
        1
 62
     0
 92
       -2
340
14
 93
        0
 40
0.045
309
GRIDFORMAT_END
 95
        8
302
GRIDFORMAT
  1
GRIDFORMAT_BEGIN
 90
        0
 91
        1
 62
     0
 92
       -2
340
14
 93
        0
 40
0.045
309
GRIDFORMAT_END
 95
       16
302
GRIDFORMAT
  1
GRIDFORMAT_BEGIN
 90
        0
 91
        1
 62
     0
 92
       -2
340
14
 93
        0
 40
0.045
309
GRIDFORMAT_END
 95
       32
302
GRIDFORMAT
  1
GRIDFORMAT_BEGIN
 90
        0
 91
        1
 62
     0
 92
       -2
340
14
 93
        0
 40
0.045
309
GRIDFORMAT_END
309
TABLEFORMAT_END
  1
CELLSTYLE_BEGIN
 90
        1
 91
        1
300
_TITLE
309
CELLSTYLE_END
300
CELLSTYLE
  1
TABLEFORMAT_BEGIN
 90
        5
170
     1
 91
        0
 92
        0
 62
   257
 93
        1
300
CONTENTFORMAT
  1
CONTENTFORMAT_BEGIN
 90
        0
 91
        0
 92
        4
 93
        0
300

 40
0.0
140
1.0
 94
        5
 62
     0
340
11
144
0.18
309
CONTENTFORMAT_END
171
     1
301
MARGIN
  1
CELLMARGIN_BEGIN
 40
0.06
 40
0.06
 40
0.06
 40
0.06
 40
0.06
 40
0.06
309
CELLMARGIN_END
 94
        6
 95
        1
302
GRIDFORMAT
  1
GRIDFORMAT_BEGIN
 90
        0
 91
        1
 62
     0
 92
       -2
340
14
 93
        0
 40
0.045
309
GRIDFORMAT_END
 95
        2
302
GRIDFORMAT
  1
GRIDFORMAT_BEGIN
 90
        0
 91
        1
 62
     0
 92
       -2
340
14
 93
        0
 40
0.045
309
GRIDFORMAT_END
 95
        4
302
GRIDFORMAT
  1
GRIDFORMAT_BEGIN
 90
        0
 91
        1
 62
     0
 92
       -2
340
14
 93
        0
 40
0.045
309
GRIDFORMAT_END
 95
        8
302
GRIDFORMAT
  1
GRIDFORMAT_BEGIN
 90
        0
 91
        1
 62
     0
 92
       -2
340
14
 93
        0
 40
0.045
309
GRIDFORMAT_END
 95
       16
302
GRIDFORMAT
  1
GRIDFORMAT_BEGIN
 90
        0
 91
        1
 62
     0
 92
       -2
340
14
 93
        0
 40
0.045
309
GRIDFORMAT_END
 95
       32
302
GRIDFORMAT
  1
GRIDFORMAT_BEGIN
 90
        0
 91
        1
 62
     0
 92
       -2
340
14
 93
        0
 40
0.045
309
GRIDFORMAT_END
309
TABLEFORMAT_END
  1
CELLSTYLE_BEGIN
 90
        2
 91
        1
300
_HEADER
309
CELLSTYLE_END
300
CELLSTYLE
  1
TABLEFORMAT_BEGIN
 90
        5
170
     1
 91
        0
 92
        0
 62
   257
 93
        1
300
CONTENTFORMAT
  1
CONTENTFORMAT_BEGIN
 90
        0
 91
        0
 92
        4
 93
        0
300

 40
0.0
140
1.0
 94
        2
 62
     0
340
11
144
0.18
309
CONTENTFORMAT_END
171
     1
301
MARGIN
  1
CELLMARGIN_BEGIN
 40
0.06
 40
0.06
 40
0.06
 40
0.06
 40
0.06
 40
0.06
309
CELLMARGIN_END
 94
        6
 95
        1
302
GRIDFORMAT
  1
GRIDFORMAT_BEGIN
 90
        0
 91
        1
 62
     0
 92
       -2
340
14
 93
        0
 40
0.045
309
GRIDFORMAT_END
 95
        2
302
GRIDFORMAT
  1
GRIDFORMAT_BEGIN
 90
        0
 91
        1
 62
     0
 92
       -2
340
14
 93
        0
 40
0.045
309
GRIDFORMAT_END
 95
        4
302
GRIDFORMAT
  1
GRIDFORMAT_BEGIN
 90
        0
 91
        1
 62
     0
 92
       -2
340
14
 93
        0
 40
0.045
309
GRIDFORMAT_END
 95
        8
302
GRIDFORMAT
  1
GRIDFORMAT_BEGIN
 90
        0
 91
        1
 62
     0
 92
       -2
340
14
 93
        0
 40
0.045
309
GRIDFORMAT_END
 95
       16
302
GRIDFORMAT
  1
GRIDFORMAT_BEGIN
 90
        0
 91
        1
 62
     0
 92
       -2
340
14
 93
        0
 40
0.045
309
GRIDFORMAT_END
 95
       32
302
GRIDFORMAT
  1
GRIDFORMAT_BEGIN
 90
        0
 91
        1
 62
     0
 92
       -2
340
14
 93
        0
 40
0.045
309
GRIDFORMAT_END
309
TABLEFORMAT_END
  1
CELLSTYLE_BEGIN
 90
        3
 91
        2
300
_DATA
309
CELLSTYLE_END
  0
XRECORD
  5
A9
102
{ACAD_REACTORS
330
A8
102
}
330
A8
100
AcDbXrecord
280
     1
102
RTVSPropertyOp0
 70
     1
102
RTVSPropertyOp1
 70
     1
102
RTVSPropertyOp2
 70
     1
102
RTVSPropertyOp3
 70
     1
102
RTVSPropertyOp4
 70
     1
102
RTVSPropertyOp5
 70
     1
102
RTVSPropertyOp6
 70
     1
102
RTVSPropertyOp7
 70
     1
102
RTVSPropertyOp8
 70
     1
102
RTVSPropertyOp9
 70
     1
102
RTVSPropertyOp10
 70
     1
102
RTVSPropertyOp11
 70
     1
102
RTVSPropertyOp12
 70
     1
102
RTVSPropertyOp13
 70
     1
102
RTVSPropertyOp14
 70
     1
102
RTVSPropertyOp15
 70
     1
102
RTVSPropertyOp16
 70
     1
102
RTVSPropertyOp17
 70
     1
102
RTVSPropertyOp18
 70
     1
102
RTVSPropertyOp19
 70
     1
102
RTVSPropertyOp20
 70
     1
102
RTVSPropertyOp21
 70
     1
102
RTVSPropertyOp22
 70
     1
102
RTVSPropertyOp23
 70
     1
102
RTVSPropertyOp24
 70
     1
102
RTVSPropertyOp25
 70
     1
102
RTVSPropertyOp26
 70
     1
102
RTVSPropertyOp27
 70
     1
102
RTVSPropertyOp28
 70
     1
102
RTVSPropertyOp29
 70
     1
102
RTVSPropertyOp30
 70
     1
102
RTVSPropertyOp31
 70
     1
102
RTVSPropertyOp32
 70
     1
102
RTVSPropertyOp33
 70
     1
102
RTVSPropertyOp34
 70
     1
102
RTVSPropertyOp35
 70
     1
102
RTVSPropertyOp36
 70
     1
102
RTVSPropertyOp37
 70
     1
102
RTVSPropertyOp38
 70
     1
102
RTVSPropertyOp39
 70
     1
102
RTVSPropertyOp40
 70
     1
102
RTVSPropertyOp41
 70
     1
102
RTVSPropertyOp42
 70
     1
102
RTVSPropertyOp43
 70
     1
102
RTVSPropertyOp44
 70
     1
102
RTVSPropertyOp45
 70
     1
102
RTVSPropertyOp46
 70
     1
102
RTVSPropertyOp47
 70
     1
102
RTVSPropertyOp48
 70
     1
102
RTVSPropertyOp49
 70
     1
102
RTVSPropertyOp50
 70
     1
102
RTVSPropertyOp51
 70
     0
102
RTVSPropertyOp52
 70
     0
102
RTVSPropertyOp53
 70
     1
102
RTVSPropertyOp54
 70
     1
102
RTVSPropertyOp55
 70
     1
102
RTVSPropertyOp56
 70
     1
102
RTVSPropertyOp57
 70
     1
102
RTVSPost2010Prop28
280
     1
102
RTVSPost2010PropOp28
 70
     1
102
RTVSPost2010Prop29
280
     1
102
RTVSPost2010PropOp29
 70
     1
102
RTVSPost2010Prop30
280
     0
102
RTVSPost2010PropOp30
 70
     1
102
RTVSPost2010Prop31
280
     0
102
RTVSPost2010PropOp31
 70
     1
102
RTVSPost2010Prop32
280
     0
102
RTVSPost2010PropOp32
 70
     1
102
RTVSPost2010Prop33
280
     0
102
RTVSPost2010PropOp33
 70
     1
102
RTVSPost2010Prop34
280
     0
102
RTVSPost2010PropOp34
 70
     1
102
RTVSPost2010Prop35
280
     0
102
RTVSPost2010PropOp35
 70
     1
102
RTVSPost2010Prop36
280
     0
102
RTVSPost2010PropOp36
 70
     1
102
RTVSPost2010Prop37
 90
       50
102
RTVSPost2010PropOp37
 70
     1
102
RTVSPost2010Prop38
140
0.0
102
RTVSPost2010PropOp38
 70
     1
102
RTVSPost2010Prop39
140
1.0
102
RTVSPost2010PropOp39
 70
     1
102
RTVSPost2010Prop40
 90
        0
102
RTVSPost2010PropOp40
 70
     1
102
RTVSPost2010Prop41ColorIndex
 90
       18
102
RTVSPost2010Prop41ColorRGB
 90
        0
102
RTVSPost2010PropOp41
 70
     1
102
RTVSPost2010Prop42
 90
       50
102
RTVSPost2010PropOp42
 70
     1
102
RTVSPost2010Prop43
 90
        3
102
RTVSPost2010PropOp43
 70
     1
102
RTVSPost2010Prop44ColorIndex
 90
        5
102
RTVSPost2010Prop44ColorRGB
 90
      255
102
RTVSPost2010PropOp44
 70
     1
102
RTVSPost2010Prop45
280
     0
102
RTVSPost2010PropOp45
 70
     1
102
RTVSPost2010Prop46
 90
       50
102
RTVSPost2010PropOp46
 70
     1
102
RTVSPost2010Prop47
 90
       50
102
RTVSPost2010PropOp47
 70
     1
102
RTVSPost2010Prop48
 90
       50
102
RTVSPost2010PropOp48
 70
     1
102
RTVSPost2010Prop49
280
     0
102
RTVSPost2010PropOp49
 70
     1
102
RTVSPost2010Prop50
 90
       50
102
RTVSPost2010PropOp50
 70
     1
102
RTVSPost2010Prop51ColorIndex
 90
      256
102
RTVSPost2010Prop51ColorRGB
 90
-16777216
102
RTVSPost2010PropOp51
 70
     0
102
RTVSPost2010Prop52
140
1.0
102
RTVSPost2010PropOp52
 70
     0
102
RTVSPost2010Prop53
 90
        2
102
RTVSPost2010PropOp53
 70
     1
102
RTVSPost2010Prop54
  1
strokes_ogs.tif
102
RTVSPost2010PropOp54
 70
     1
102
RTVSPost2010Prop55
280
     0
102
RTVSPost2010PropOp55
 70
     1
102
RTVSPost2010Prop56
140
1.0
102
RTVSPost2010PropOp56
 70
     1
102
RTVSPost2010Prop57
140
1.0
102
RTVSPost2010PropOp57
 70
     1
  0
XRECORD
  5
AF
102
{ACAD_REACTORS
330
AE
102
}
330
AE
100
AcDbXrecord
280
     1
102
RTVSPropertyOp0
 70
     1
102
RTVSPropertyOp1
 70
     1
102
RTVSPropertyOp2
 70
     1
102
RTVSPropertyOp3
 70
     1
102
RTVSPropertyOp4
 70
     1
102
RTVSPropertyOp5
 70
     1
102
RTVSPropertyOp6
 70
     1
102
RTVSPropertyOp7
 70
     1
102
RTVSPropertyOp8
 70
     1
102
RTVSPropertyOp9
 70
     1
102
RTVSPropertyOp10
 70
     1
102
RTVSPropertyOp11
 70
     1
102
RTVSPropertyOp12
 70
     1
102
RTVSPropertyOp13
 70
     1
102
RTVSPropertyOp14
 70
     1
102
RTVSPropertyOp15
 70
     1
102
RTVSPropertyOp16
 70
     1
102
RTVSPropertyOp17
 70
     1
102
RTVSPropertyOp18
 70
     1
102
RTVSPropertyOp19
 70
     1
102
RTVSPropertyOp20
 70
     1
102
RTVSPropertyOp21
 70
     1
102
RTVSPropertyOp22
 70
     1
102
RTVSPropertyOp23
 70
     1
102
RTVSPropertyOp24
 70
     1
102
RTVSPropertyOp25
 70
     1
102
RTVSPropertyOp26
 70
     1
102
RTVSPropertyOp27
 70
     1
102
RTVSPropertyOp28
 70
     1
102
RTVSPropertyOp29
 70
     1
102
RTVSPropertyOp30
 70
     1
102
RTVSPropertyOp31
 70
     1
102
RTVSPropertyOp32
 70
     1
102
RTVSPropertyOp33
 70
     1
102
RTVSPropertyOp34
 70
     1
102
RTVSPropertyOp35
 70
     1
102
RTVSPropertyOp36
 70
     1
102
RTVSPropertyOp37
 70
     1
102
RTVSPropertyOp38
 70
     1
102
RTVSPropertyOp39
 70
     1
102
RTVSPropertyOp40
 70
     1
102
RTVSPropertyOp41
 70
     1
102
RTVSPropertyOp42
 70
     1
102
RTVSPropertyOp43
 70
     1
102
RTVSPropertyOp44
 70
     1
102
RTVSPropertyOp45
 70
     1
102
RTVSPropertyOp46
 70
     1
102
RTVSPropertyOp47
 70
     1
102
RTVSPropertyOp48
 70
     1
102
RTVSPropertyOp49
 70
     1
102
RTVSPropertyOp50
 70
     1
102
RTVSPropertyOp51
 70
     0
102
RTVSPropertyOp52
 70
     0
102
RTVSPropertyOp53
 70
     1
102
RTVSPropertyOp54
 70
     1
102
RTVSPropertyOp55
 70
     1
102
RTVSPropertyOp56
 70
     1
102
RTVSPropertyOp57
 70
     1
102
RTVSPost2010Prop28
280
     0
102
RTVSPost2010PropOp28
 70
     1
102
RTVSPost2010Prop29
280
     1
102
RTVSPost2010PropOp29
 70
     1
102
RTVSPost2010Prop30
280
     1
102
RTVSPost2010PropOp30
 70
     1
102
RTVSPost2010Prop31
280
     0
102
RTVSPost2010PropOp31
 70
     1
102
RTVSPost2010Prop32
280
     0
102
RTVSPost2010PropOp32
 70
     1
102
RTVSPost2010Prop33
280
     0
102
RTVSPost2010PropOp33
 70
     1
102
RTVSPost2010Prop34
280
     0
102
RTVSPost2010PropOp34
 70
     1
102
RTVSPost2010Prop35
280
     0
102
RTVSPost2010PropOp35
 70
     1
102
RTVSPost2010Prop36
280
     0
102
RTVSPost2010PropOp36
 70
     1
102
RTVSPost2010Prop37
 90
       50
102
RTVSPost2010PropOp37
 70
     1
102
RTVSPost2010Prop38
140
0.0
102
RTVSPost2010PropOp38
 70
     1
102
RTVSPost2010Prop39
140
1.0
102
RTVSPost2010PropOp39
 70
     1
102
RTVSPost2010Prop40
 90
        0
102
RTVSPost2010PropOp40
 70
     1
102
RTVSPost2010Prop41ColorIndex
 90
       18
102
RTVSPost2010Prop41ColorRGB
 90
        0
102
RTVSPost2010PropOp41
 70
     1
102
RTVSPost2010Prop42
 90
       50
102
RTVSPost2010PropOp42
 70
     1
102
RTVSPost2010Prop43
 90
        3
102
RTVSPost2010PropOp43
 70
     1
102
RTVSPost2010Prop44ColorIndex
 90
        5
102
RTVSPost2010Prop44ColorRGB
 90
      255
102
RTVSPost2010PropOp44
 70
     1
102
RTVSPost2010Prop45
280
     0
102
RTVSPost2010PropOp45
 70
     1
102
RTVSPost2010Prop46
 90
       50
102
RTVSPost2010PropOp46
 70
     1
102
RTVSPost2010Prop47
 90
       50
102
RTVSPost2010PropOp47
 70
     1
102
RTVSPost2010Prop48
 90
       50
102
RTVSPost2010PropOp48
 70
     1
102
RTVSPost2010Prop49
280
     0
102
RTVSPost2010PropOp49
 70
     1
102
RTVSPost2010Prop50
 90
       50
102
RTVSPost2010PropOp50
 70
     1
102
RTVSPost2010Prop51ColorIndex
 90
      256
102
RTVSPost2010Prop51ColorRGB
 90
-16777216
102
RTVSPost2010PropOp51
 70
     0
102
RTVSPost2010Prop52
140
1.0
102
RTVSPost2010PropOp52
 70
     0
102
RTVSPost2010Prop53
 90
        2
102
RTVSPost2010PropOp53
 70
     1
102
RTVSPost2010Prop54
  1
strokes_ogs.tif
102
RTVSPost2010PropOp54
 70
     1
102
RTVSPost2010Prop55
280
     0
102
RTVSPost2010PropOp55
 70
     1
102
RTVSPost2010Prop56
140
1.0
102
RTVSPost2010PropOp56
 70
     1
102
RTVSPost2010Prop57
140
1.0
102
RTVSPost2010PropOp57
 70
     1
  0
XRECORD
  5
B7
102
{ACAD_REACTORS
330
B6
102
}
330
B6
100
AcDbXrecord
280
     1
102
RTVSPropertyOp0
 70
     1
102
RTVSPropertyOp1
 70
     1
102
RTVSPropertyOp2
 70
     1
102
RTVSPropertyOp3
 70
     1
102
RTVSPropertyOp4
 70
     1
102
RTVSPropertyOp5
 70
     1
102
RTVSPropertyOp6
 70
     1
102
RTVSPropertyOp7
 70
     1
102
RTVSPropertyOp8
 70
     1
102
RTVSPropertyOp9
 70
     1
102
RTVSPropertyOp10
 70
     1
102
RTVSPropertyOp11
 70
     1
102
RTVSPropertyOp12
 70
     1
102
RTVSPropertyOp13
 70
     1
102
RTVSPropertyOp14
 70
     1
102
RTVSPropertyOp15
 70
     1
102
RTVSPropertyOp16
 70
     1
102
RTVSPropertyOp17
 70
     1
102
RTVSPropertyOp18
 70
     1
102
RTVSPropertyOp19
 70
     1
102
RTVSPropertyOp20
 70
     1
102
RTVSPropertyOp21
 70
     1
102
RTVSPropertyOp22
 70
     1
102
RTVSPropertyOp23
 70
     1
102
RTVSPropertyOp24
 70
     1
102
RTVSPropertyOp25
 70
     1
102
RTVSPropertyOp26
 70
     1
102
RTVSPropertyOp27
 70
     1
102
RTVSPropertyOp28
 70
     1
102
RTVSPropertyOp29
 70
     1
102
RTVSPropertyOp30
 70
     1
102
RTVSPropertyOp31
 70
     1
102
RTVSPropertyOp32
 70
     1
102
RTVSPropertyOp33
 70
     1
102
RTVSPropertyOp34
 70
     1
102
RTVSPropertyOp35
 70
     1
102
RTVSPropertyOp36
 70
     1
102
RTVSPropertyOp37
 70
     1
102
RTVSPropertyOp38
 70
     1
102
RTVSPropertyOp39
 70
     1
102
RTVSPropertyOp40
 70
     1
102
RTVSPropertyOp41
 70
     1
102
RTVSPropertyOp42
 70
     1
102
RTVSPropertyOp43
 70
     1
102
RTVSPropertyOp44
 70
     1
102
RTVSPropertyOp45
 70
     1
102
RTVSPropertyOp46
 70
     1
102
RTVSPropertyOp47
 70
     1
102
RTVSPropertyOp48
 70
     1
102
RTVSPropertyOp49
 70
     1
102
RTVSPropertyOp50
 70
     1
102
RTVSPropertyOp51
 70
     0
102
RTVSPropertyOp52
 70
     0
102
RTVSPropertyOp53
 70
     1
102
RTVSPropertyOp54
 70
     1
102
RTVSPropertyOp55
 70
     1
102
RTVSPropertyOp56
 70
     1
102
RTVSPropertyOp57
 70
     1
102
RTVSPost2010Prop28
280
     0
102
RTVSPost2010PropOp28
 70
     1
102
RTVSPost2010Prop29
280
     1
102
RTVSPost2010PropOp29
 70
     1
102
RTVSPost2010Prop30
280
     1
102
RTVSPost2010PropOp30
 70
     1
102
RTVSPost2010Prop31
280
     0
102
RTVSPost2010PropOp31
 70
     1
102
RTVSPost2010Prop32
280
     0
102
RTVSPost2010PropOp32
 70
     1
102
RTVSPost2010Prop33
280
     0
102
RTVSPost2010PropOp33
 70
     1
102
RTVSPost2010Prop34
280
     0
102
RTVSPost2010PropOp34
 70
     1
102
RTVSPost2010Prop35
280
     0
102
RTVSPost2010PropOp35
 70
     1
102
RTVSPost2010Prop36
280
     0
102
RTVSPost2010PropOp36
 70
     1
102
RTVSPost2010Prop37
 90
       50
102
RTVSPost2010PropOp37
 70
     1
102
RTVSPost2010Prop38
140
0.0
102
RTVSPost2010PropOp38
 70
     1
102
RTVSPost2010Prop39
140
1.0
102
RTVSPost2010PropOp39
 70
     1
102
RTVSPost2010Prop40
 90
        0
102
RTVSPost2010PropOp40
 70
     1
102
RTVSPost2010Prop41ColorIndex
 90
       18
102
RTVSPost2010Prop41ColorRGB
 90
        0
102
RTVSPost2010PropOp41
 70
     1
102
RTVSPost2010Prop42
 90
       50
102
RTVSPost2010PropOp42
 70
     1
102
RTVSPost2010Prop43
 90
        3
102
RTVSPost2010PropOp43
 70
     1
102
RTVSPost2010Prop44ColorIndex
 90
        5
102
RTVSPost2010Prop44ColorRGB
 90
      255
102
RTVSPost2010PropOp44
 70
     1
102
RTVSPost2010Prop45
280
     0
102
RTVSPost2010PropOp45
 70
     1
102
RTVSPost2010Prop46
 90
       50
102
RTVSPost2010PropOp46
 70
     1
102
RTVSPost2010Prop47
 90
       50
102
RTVSPost2010PropOp47
 70
     1
102
RTVSPost2010Prop48
 90
       50
102
RTVSPost2010PropOp48
 70
     1
102
RTVSPost2010Prop49
280
     0
102
RTVSPost2010PropOp49
 70
     1
102
RTVSPost2010Prop50
 90
       50
102
RTVSPost2010PropOp50
 70
     1
102
RTVSPost2010Prop51ColorIndex
 90
      256
102
RTVSPost2010Prop51ColorRGB
 90
-16777216
102
RTVSPost2010PropOp51
 70
     0
102
RTVSPost2010Prop52
140
1.0
102
RTVSPost2010PropOp52
 70
     0
102
RTVSPost2010Prop53
 90
        2
102
RTVSPost2010PropOp53
 70
     1
102
RTVSPost2010Prop54
  1
strokes_ogs.tif
102
RTVSPost2010PropOp54
 70
     1
102
RTVSPost2010Prop55
280
     0
102
RTVSPost2010PropOp55
 70
     1
102
RTVSPost2010Prop56
140
1.0
102
RTVSPost2010PropOp56
 70
     1
102
RTVSPost2010Prop57
140
1.0
102
RTVSPost2010PropOp57
 70
     1
  0
XRECORD
  5
BF
102
{ACAD_REACTORS
330
BE
102
}
330
BE
100
AcDbXrecord
280
     1
102
RTVSPropertyOp0
 70
     1
102
RTVSPropertyOp1
 70
     1
102
RTVSPropertyOp2
 70
     1
102
RTVSPropertyOp3
 70
     1
102
RTVSPropertyOp4
 70
     1
102
RTVSPropertyOp5
 70
     1
102
RTVSPropertyOp6
 70
     1
102
RTVSPropertyOp7
 70
     1
102
RTVSPropertyOp8
 70
     1
102
RTVSPropertyOp9
 70
     1
102
RTVSPropertyOp10
 70
     1
102
RTVSPropertyOp11
 70
     1
102
RTVSPropertyOp12
 70
     1
102
RTVSPropertyOp13
 70
     1
102
RTVSPropertyOp14
 70
     1
102
RTVSPropertyOp15
 70
     1
102
RTVSPropertyOp16
 70
     1
102
RTVSPropertyOp17
 70
     1
102
RTVSPropertyOp18
 70
     1
102
RTVSPropertyOp19
 70
     1
102
RTVSPropertyOp20
 70
     1
102
RTVSPropertyOp21
 70
     1
102
RTVSPropertyOp22
 70
     1
102
RTVSPropertyOp23
 70
     1
102
RTVSPropertyOp24
 70
     1
102
RTVSPropertyOp25
 70
     1
102
RTVSPropertyOp26
 70
     1
102
RTVSPropertyOp27
 70
     1
102
RTVSPropertyOp28
 70
     1
102
RTVSPropertyOp29
 70
     1
102
RTVSPropertyOp30
 70
     1
102
RTVSPropertyOp31
 70
     1
102
RTVSPropertyOp32
 70
     1
102
RTVSPropertyOp33
 70
     1
102
RTVSPropertyOp34
 70
     1
102
RTVSPropertyOp35
 70
     1
102
RTVSPropertyOp36
 70
     1
102
RTVSPropertyOp37
 70
     1
102
RTVSPropertyOp38
 70
     1
102
RTVSPropertyOp39
 70
     1
102
RTVSPropertyOp40
 70
     1
102
RTVSPropertyOp41
 70
     1
102
RTVSPropertyOp42
 70
     1
102
RTVSPropertyOp43
 70
     1
102
RTVSPropertyOp44
 70
     1
102
RTVSPropertyOp45
 70
     1
102
RTVSPropertyOp46
 70
     1
102
RTVSPropertyOp47
 70
     1
102
RTVSPropertyOp48
 70
     1
102
RTVSPropertyOp49
 70
     1
102
RTVSPropertyOp50
 70
     1
102
RTVSPropertyOp51
 70
     0
102
RTVSPropertyOp52
 70
     0
102
RTVSPropertyOp53
 70
     1
102
RTVSPropertyOp54
 70
     1
102
RTVSPropertyOp55
 70
     1
102
RTVSPropertyOp56
 70
     1
102
RTVSPropertyOp57
 70
     1
102
RTVSPost2010Prop28
280
     0
102
RTVSPost2010PropOp28
 70
     1
102
RTVSPost2010Prop29
280
     1
102
RTVSPost2010PropOp29
 70
     1
102
RTVSPost2010Prop30
280
     1
102
RTVSPost2010PropOp30
 70
     1
102
RTVSPost2010Prop31
280
     0
102
RTVSPost2010PropOp31
 70
     1
102
RTVSPost2010Prop32
280
     0
102
RTVSPost2010PropOp32
 70
     1
102
RTVSPost2010Prop33
280
     0
102
RTVSPost2010PropOp33
 70
     1
102
RTVSPost2010Prop34
280
     0
102
RTVSPost2010PropOp34
 70
     1
102
RTVSPost2010Prop35
280
     0
102
RTVSPost2010PropOp35
 70
     1
102
RTVSPost2010Prop36
280
     0
102
RTVSPost2010PropOp36
 70
     1
102
RTVSPost2010Prop37
 90
       50
102
RTVSPost2010PropOp37
 70
     1
102
RTVSPost2010Prop38
140
0.0
102
RTVSPost2010PropOp38
 70
     1
102
RTVSPost2010Prop39
140
1.0
102
RTVSPost2010PropOp39
 70
     1
102
RTVSPost2010Prop40
 90
        0
102
RTVSPost2010PropOp40
 70
     1
102
RTVSPost2010Prop41ColorIndex
 90
       18
102
RTVSPost2010Prop41ColorRGB
 90
        0
102
RTVSPost2010PropOp41
 70
     1
102
RTVSPost2010Prop42
 90
       50
102
RTVSPost2010PropOp42
 70
     1
102
RTVSPost2010Prop43
 90
        3
102
RTVSPost2010PropOp43
 70
     1
102
RTVSPost2010Prop44ColorIndex
 90
        5
102
RTVSPost2010Prop44ColorRGB
 90
      255
102
RTVSPost2010PropOp44
 70
     1
102
RTVSPost2010Prop45
280
     0
102
RTVSPost2010PropOp45
 70
     1
102
RTVSPost2010Prop46
 90
       50
102
RTVSPost2010PropOp46
 70
     1
102
RTVSPost2010Prop47
 90
       50
102
RTVSPost2010PropOp47
 70
     1
102
RTVSPost2010Prop48
 90
       50
102
RTVSPost2010PropOp48
 70
     1
102
RTVSPost2010Prop49
280
     0
102
RTVSPost2010PropOp49
 70
     1
102
RTVSPost2010Prop50
 90
       50
102
RTVSPost2010PropOp50
 70
     1
102
RTVSPost2010Prop51ColorIndex
 90
      256
102
RTVSPost2010Prop51ColorRGB
 90
-16777216
102
RTVSPost2010PropOp51
 70
     0
102
RTVSPost2010Prop52
140
1.0
102
RTVSPost2010PropOp52
 70
     0
102
RTVSPost2010Prop53
 90
        2
102
RTVSPost2010PropOp53
 70
     1
102
RTVSPost2010Prop54
  1
strokes_ogs.tif
102
RTVSPost2010PropOp54
 70
     1
102
RTVSPost2010Prop55
280
     0
102
RTVSPost2010PropOp55
 70
     1
102
RTVSPost2010Prop56
140
1.0
102
RTVSPost2010PropOp56
 70
     1
102
RTVSPost2010Prop57
140
1.0
102
RTVSPost2010PropOp57
 70
     1
  0
XRECORD
  5
B3
102
{ACAD_REACTORS
330
B2
102
}
330
B2
100
AcDbXrecord
280
     1
102
RTVSPropertyOp0
 70
     1
102
RTVSPropertyOp1
 70
     1
102
RTVSPropertyOp2
 70
     1
102
RTVSPropertyOp3
 70
     1
102
RTVSPropertyOp4
 70
     1
102
RTVSPropertyOp5
 70
     1
102
RTVSPropertyOp6
 70
     1
102
RTVSPropertyOp7
 70
     1
102
RTVSPropertyOp8
 70
     1
102
RTVSPropertyOp9
 70
     1
102
RTVSPropertyOp10
 70
     1
102
RTVSPropertyOp11
 70
     1
102
RTVSPropertyOp12
 70
     1
102
RTVSPropertyOp13
 70
     1
102
RTVSPropertyOp14
 70
     1
102
RTVSPropertyOp15
 70
     1
102
RTVSPropertyOp16
 70
     1
102
RTVSPropertyOp17
 70
     1
102
RTVSPropertyOp18
 70
     1
102
RTVSPropertyOp19
 70
     1
102
RTVSPropertyOp20
 70
     1
102
RTVSPropertyOp21
 70
     1
102
RTVSPropertyOp22
 70
     1
102
RTVSPropertyOp23
 70
     1
102
RTVSPropertyOp24
 70
     1
102
RTVSPropertyOp25
 70
     1
102
RTVSPropertyOp26
 70
     1
102
RTVSPropertyOp27
 70
     1
102
RTVSPropertyOp28
 70
     1
102
RTVSPropertyOp29
 70
     1
102
RTVSPropertyOp30
 70
     1
102
RTVSPropertyOp31
 70
     1
102
RTVSPropertyOp32
 70
     1
102
RTVSPropertyOp33
 70
     1
102
RTVSPropertyOp34
 70
     1
102
RTVSPropertyOp35
 70
     1
102
RTVSPropertyOp36
 70
     1
102
RTVSPropertyOp37
 70
     1
102
RTVSPropertyOp38
 70
     1
102
RTVSPropertyOp39
 70
     1
102
RTVSPropertyOp40
 70
     1
102
RTVSPropertyOp41
 70
     1
102
RTVSPropertyOp42
 70
     1
102
RTVSPropertyOp43
 70
     1
102
RTVSPropertyOp44
 70
     1
102
RTVSPropertyOp45
 70
     1
102
RTVSPropertyOp46
 70
     1
102
RTVSPropertyOp47
 70
     1
102
RTVSPropertyOp48
 70
     1
102
RTVSPropertyOp49
 70
     1
102
RTVSPropertyOp50
 70
     1
102
RTVSPropertyOp51
 70
     0
102
RTVSPropertyOp52
 70
     0
102
RTVSPropertyOp53
 70
     1
102
RTVSPropertyOp54
 70
     1
102
RTVSPropertyOp55
 70
     1
102
RTVSPropertyOp56
 70
     1
102
RTVSPropertyOp57
 70
     1
102
RTVSPost2010Prop28
280
     0
102
RTVSPost2010PropOp28
 70
     1
102
RTVSPost2010Prop29
280
     1
102
RTVSPost2010PropOp29
 70
     1
102
RTVSPost2010Prop30
280
     1
102
RTVSPost2010PropOp30
 70
     1
102
RTVSPost2010Prop31
280
     0
102
RTVSPost2010PropOp31
 70
     1
102
RTVSPost2010Prop32
280
     0
102
RTVSPost2010PropOp32
 70
     1
102
RTVSPost2010Prop33
280
     0
102
RTVSPost2010PropOp33
 70
     1
102
RTVSPost2010Prop34
280
     0
102
RTVSPost2010PropOp34
 70
     1
102
RTVSPost2010Prop35
280
     0
102
RTVSPost2010PropOp35
 70
     1
102
RTVSPost2010Prop36
280
     0
102
RTVSPost2010PropOp36
 70
     1
102
RTVSPost2010Prop37
 90
       50
102
RTVSPost2010PropOp37
 70
     1
102
RTVSPost2010Prop38
140
0.0
102
RTVSPost2010PropOp38
 70
     1
102
RTVSPost2010Prop39
140
1.0
102
RTVSPost2010PropOp39
 70
     1
102
RTVSPost2010Prop40
 90
        0
102
RTVSPost2010PropOp40
 70
     1
102
RTVSPost2010Prop41ColorIndex
 90
       18
102
RTVSPost2010Prop41ColorRGB
 90
        0
102
RTVSPost2010PropOp41
 70
     1
102
RTVSPost2010Prop42
 90
       50
102
RTVSPost2010PropOp42
 70
     1
102
RTVSPost2010Prop43
 90
        3
102
RTVSPost2010PropOp43
 70
     1
102
RTVSPost2010Prop44ColorIndex
 90
        5
102
RTVSPost2010Prop44ColorRGB
 90
      255
102
RTVSPost2010PropOp44
 70
     1
102
RTVSPost2010Prop45
280
     0
102
RTVSPost2010PropOp45
 70
     1
102
RTVSPost2010Prop46
 90
       50
102
RTVSPost2010PropOp46
 70
     1
102
RTVSPost2010Prop47
 90
       50
102
RTVSPost2010PropOp47
 70
     1
102
RTVSPost2010Prop48
 90
       50
102
RTVSPost2010PropOp48
 70
     1
102
RTVSPost2010Prop49
280
     0
102
RTVSPost2010PropOp49
 70
     1
102
RTVSPost2010Prop50
 90
       50
102
RTVSPost2010PropOp50
 70
     1
102
RTVSPost2010Prop51ColorIndex
 90
      256
102
RTVSPost2010Prop51ColorRGB
 90
-16777216
102
RTVSPost2010PropOp51
 70
     0
102
RTVSPost2010Prop52
140
1.0
102
RTVSPost2010PropOp52
 70
     0
102
RTVSPost2010Prop53
 90
        2
102
RTVSPost2010PropOp53
 70
     1
102
RTVSPost2010Prop54
  1
strokes_ogs.tif
102
RTVSPost2010PropOp54
 70
     1
102
RTVSPost2010Prop55
280
     0
102
RTVSPost2010PropOp55
 70
     1
102
RTVSPost2010Prop56
140
1.0
102
RTVSPost2010PropOp56
 70
     1
102
RTVSPost2010Prop57
140
1.0
102
RTVSPost2010PropOp57
 70
     1
  0
XRECORD
  5
B5
102
{ACAD_REACTORS
330
B4
102
}
330
B4
100
AcDbXrecord
280
     1
102
RTVSPropertyOp0
 70
     1
102
RTVSPropertyOp1
 70
     1
102
RTVSPropertyOp2
 70
     1
102
RTVSPropertyOp3
 70
     1
102
RTVSPropertyOp4
 70
     1
102
RTVSPropertyOp5
 70
     1
102
RTVSPropertyOp6
 70
     1
102
RTVSPropertyOp7
 70
     1
102
RTVSPropertyOp8
 70
     1
102
RTVSPropertyOp9
 70
     1
102
RTVSPropertyOp10
 70
     1
102
RTVSPropertyOp11
 70
     1
102
RTVSPropertyOp12
 70
     1
102
RTVSPropertyOp13
 70
     1
102
RTVSPropertyOp14
 70
     1
102
RTVSPropertyOp15
 70
     1
102
RTVSPropertyOp16
 70
     1
102
RTVSPropertyOp17
 70
     1
102
RTVSPropertyOp18
 70
     1
102
RTVSPropertyOp19
 70
     1
102
RTVSPropertyOp20
 70
     1
102
RTVSPropertyOp21
 70
     1
102
RTVSPropertyOp22
 70
     1
102
RTVSPropertyOp23
 70
     1
102
RTVSPropertyOp24
 70
     1
102
RTVSPropertyOp25
 70
     1
102
RTVSPropertyOp26
 70
     1
102
RTVSPropertyOp27
 70
     1
102
RTVSPropertyOp28
 70
     1
102
RTVSPropertyOp29
 70
     1
102
RTVSPropertyOp30
 70
     1
102
RTVSPropertyOp31
 70
     1
102
RTVSPropertyOp32
 70
     1
102
RTVSPropertyOp33
 70
     1
102
RTVSPropertyOp34
 70
     1
102
RTVSPropertyOp35
 70
     1
102
RTVSPropertyOp36
 70
     1
102
RTVSPropertyOp37
 70
     1
102
RTVSPropertyOp38
 70
     1
102
RTVSPropertyOp39
 70
     1
102
RTVSPropertyOp40
 70
     1
102
RTVSPropertyOp41
 70
     1
102
RTVSPropertyOp42
 70
     1
102
RTVSPropertyOp43
 70
     1
102
RTVSPropertyOp44
 70
     1
102
RTVSPropertyOp45
 70
     1
102
RTVSPropertyOp46
 70
     1
102
RTVSPropertyOp47
 70
     1
102
RTVSPropertyOp48
 70
     1
102
RTVSPropertyOp49
 70
     1
102
RTVSPropertyOp50
 70
     1
102
RTVSPropertyOp51
 70
     0
102
RTVSPropertyOp52
 70
     0
102
RTVSPropertyOp53
 70
     1
102
RTVSPropertyOp54
 70
     1
102
RTVSPropertyOp55
 70
     1
102
RTVSPropertyOp56
 70
     1
102
RTVSPropertyOp57
 70
     1
102
RTVSPost2010Prop28
280
     0
102
RTVSPost2010PropOp28
 70
     1
102
RTVSPost2010Prop29
280
     1
102
RTVSPost2010PropOp29
 70
     1
102
RTVSPost2010Prop30
280
     1
102
RTVSPost2010PropOp30
 70
     1
102
RTVSPost2010Prop31
280
     0
102
RTVSPost2010PropOp31
 70
     1
102
RTVSPost2010Prop32
280
     0
102
RTVSPost2010PropOp32
 70
     1
102
RTVSPost2010Prop33
280
     0
102
RTVSPost2010PropOp33
 70
     1
102
RTVSPost2010Prop34
280
     0
102
RTVSPost2010PropOp34
 70
     1
102
RTVSPost2010Prop35
280
     0
102
RTVSPost2010PropOp35
 70
     1
102
RTVSPost2010Prop36
280
     0
102
RTVSPost2010PropOp36
 70
     1
102
RTVSPost2010Prop37
 90
       50
102
RTVSPost2010PropOp37
 70
     1
102
RTVSPost2010Prop38
140
0.0
102
RTVSPost2010PropOp38
 70
     1
102
RTVSPost2010Prop39
140
1.0
102
RTVSPost2010PropOp39
 70
     1
102
RTVSPost2010Prop40
 90
        0
102
RTVSPost2010PropOp40
 70
     1
102
RTVSPost2010Prop41ColorIndex
 90
       18
102
RTVSPost2010Prop41ColorRGB
 90
        0
102
RTVSPost2010PropOp41
 70
     1
102
RTVSPost2010Prop42
 90
       50
102
RTVSPost2010PropOp42
 70
     1
102
RTVSPost2010Prop43
 90
        3
102
RTVSPost2010PropOp43
 70
     1
102
RTVSPost2010Prop44ColorIndex
 90
        5
102
RTVSPost2010Prop44ColorRGB
 90
      255
102
RTVSPost2010PropOp44
 70
     1
102
RTVSPost2010Prop45
280
     0
102
RTVSPost2010PropOp45
 70
     1
102
RTVSPost2010Prop46
 90
       50
102
RTVSPost2010PropOp46
 70
     1
102
RTVSPost2010Prop47
 90
       50
102
RTVSPost2010PropOp47
 70
     1
102
RTVSPost2010Prop48
 90
       50
102
RTVSPost2010PropOp48
 70
     1
102
RTVSPost2010Prop49
280
     0
102
RTVSPost2010PropOp49
 70
     1
102
RTVSPost2010Prop50
 90
       50
102
RTVSPost2010PropOp50
 70
     1
102
RTVSPost2010Prop51ColorIndex
 90
      256
102
RTVSPost2010Prop51ColorRGB
 90
-16777216
102
RTVSPost2010PropOp51
 70
     0
102
RTVSPost2010Prop52
140
1.0
102
RTVSPost2010PropOp52
 70
     0
102
RTVSPost2010Prop53
 90
        2
102
RTVSPost2010PropOp53
 70
     1
102
RTVSPost2010Prop54
  1
strokes_ogs.tif
102
RTVSPost2010PropOp54
 70
     1
102
RTVSPost2010Prop55
280
     0
102
RTVSPost2010PropOp55
 70
     1
102
RTVSPost2010Prop56
140
1.0
102
RTVSPost2010PropOp56
 70
     1
102
RTVSPost2010Prop57
140
1.0
102
RTVSPost2010PropOp57
 70
     1
  0
XRECORD
  5
C5
102
{ACAD_REACTORS
330
C4
102
}
330
C4
100
AcDbXrecord
280
     1
102
RTVSPropertyOp0
 70
     0
102
RTVSPropertyOp1
 70
     0
102
RTVSPropertyOp2
 70
     0
102
RTVSPropertyOp3
 70
     0
102
RTVSPropertyOp4
 70
     0
102
RTVSPropertyOp5
 70
     0
102
RTVSPropertyOp6
 70
     0
102
RTVSPropertyOp7
 70
     0
102
RTVSPropertyOp8
 70
     0
102
RTVSPropertyOp9
 70
     0
102
RTVSPropertyOp10
 70
     0
102
RTVSPropertyOp11
 70
     0
102
RTVSPropertyOp12
 70
     0
102
RTVSPropertyOp13
 70
     0
102
RTVSPropertyOp14
 70
     2
102
RTVSPropertyOp15
 70
     0
102
RTVSPropertyOp16
 70
     0
102
RTVSPropertyOp17
 70
     0
102
RTVSPropertyOp18
 70
     0
102
RTVSPropertyOp19
 70
     0
102
RTVSPropertyOp20
 70
     0
102
RTVSPropertyOp21
 70
     0
102
RTVSPropertyOp22
 70
     0
102
RTVSPropertyOp23
 70
     0
102
RTVSPropertyOp24
 70
     0
102
RTVSPropertyOp25
 70
     0
102
RTVSPropertyOp26
 70
     0
102
RTVSPropertyOp27
 70
     0
102
RTVSPropertyOp28
 70
     0
102
RTVSPropertyOp29
 70
     0
102
RTVSPropertyOp30
 70
     0
102
RTVSPropertyOp31
 70
     0
102
RTVSPropertyOp32
 70
     0
102
RTVSPropertyOp33
 70
     0
102
RTVSPropertyOp34
 70
     0
102
RTVSPropertyOp35
 70
     0
102
RTVSPropertyOp36
 70
     0
102
RTVSPropertyOp37
 70
     0
102
RTVSPropertyOp38
 70
     0
102
RTVSPropertyOp39
 70
     0
102
RTVSPropertyOp40
 70
     0
102
RTVSPropertyOp41
 70
     0
102
RTVSPropertyOp42
 70
     0
102
RTVSPropertyOp43
 70
     0
102
RTVSPropertyOp44
 70
     0
102
RTVSPropertyOp45
 70
     0
102
RTVSPropertyOp46
 70
     0
102
RTVSPropertyOp47
 70
     0
102
RTVSPropertyOp48
 70
     0
102
RTVSPropertyOp49
 70
     0
102
RTVSPropertyOp50
 70
     0
102
RTVSPropertyOp51
 70
     0
102
RTVSPropertyOp52
 70
     0
102
RTVSPropertyOp53
 70
     0
102
RTVSPropertyOp54
 70
     0
102
RTVSPropertyOp55
 70
     0
102
RTVSPropertyOp56
 70
     0
102
RTVSPropertyOp57
 70
     0
102
RTVSPost2010Prop28
280
     0
102
RTVSPost2010PropOp28
 70
     0
102
RTVSPost2010Prop29
280
     1
102
RTVSPost2010PropOp29
 70
     0
102
RTVSPost2010Prop30
280
     1
102
RTVSPost2010PropOp30
 70
     0
102
RTVSPost2010Prop31
280
     0
102
RTVSPost2010PropOp31
 70
     0
102
RTVSPost2010Prop32
280
     0
102
RTVSPost2010PropOp32
 70
     0
102
RTVSPost2010Prop33
280
     0
102
RTVSPost2010PropOp33
 70
     0
102
RTVSPost2010Prop34
280
     0
102
RTVSPost2010PropOp34
 70
     0
102
RTVSPost2010Prop35
280
     0
102
RTVSPost2010PropOp35
 70
     0
102
RTVSPost2010Prop36
280
     0
102
RTVSPost2010PropOp36
 70
     0
102
RTVSPost2010Prop37
 90
       50
102
RTVSPost2010PropOp37
 70
     0
102
RTVSPost2010Prop38
140
0.0
102
RTVSPost2010PropOp38
 70
     0
102
RTVSPost2010Prop39
140
1.0
102
RTVSPost2010PropOp39
 70
     0
102
RTVSPost2010Prop40
 90
        0
102
RTVSPost2010PropOp40
 70
     0
102
RTVSPost2010Prop41ColorIndex
 90
       18
102
RTVSPost2010Prop41ColorRGB
 90
        0
102
RTVSPost2010PropOp41
 70
     0
102
RTVSPost2010Prop42
 90
       50
102
RTVSPost2010PropOp42
 70
     0
102
RTVSPost2010Prop43
 90
        3
102
RTVSPost2010PropOp43
 70
     0
102
RTVSPost2010Prop44ColorIndex
 90
        5
102
RTVSPost2010Prop44ColorRGB
 90
      255
102
RTVSPost2010PropOp44
 70
     0
102
RTVSPost2010Prop45
280
     0
102
RTVSPost2010PropOp45
 70
     0
102
RTVSPost2010Prop46
 90
       50
102
RTVSPost2010PropOp46
 70
     0
102
RTVSPost2010Prop47
 90
       50
102
RTVSPost2010PropOp47
 70
     0
102
RTVSPost2010Prop48
 90
       50
102
RTVSPost2010PropOp48
 70
     0
102
RTVSPost2010Prop49
280
     0
102
RTVSPost2010PropOp49
 70
     0
102
RTVSPost2010Prop50
 90
       50
102
RTVSPost2010PropOp50
 70
     0
102
RTVSPost2010Prop51ColorIndex
 90
      256
102
RTVSPost2010Prop51ColorRGB
 90
-16777216
102
RTVSPost2010PropOp51
 70
     0
102
RTVSPost2010Prop52
140
1.0
102
RTVSPost2010PropOp52
 70
     0
102
RTVSPost2010Prop53
 90
        2
102
RTVSPost2010PropOp53
 70
     0
102
RTVSPost2010Prop54
  1
strokes_ogs.tif
102
RTVSPost2010PropOp54
 70
     0
102
RTVSPost2010Prop55
280
     0
102
RTVSPost2010PropOp55
 70
     0
102
RTVSPost2010Prop56
140
1.0
102
RTVSPost2010PropOp56
 70
     0
102
RTVSPost2010Prop57
140
1.0
102
RTVSPost2010PropOp57
 70
     0
  0
XRECORD
  5
BD
102
{ACAD_REACTORS
330
BC
102
}
330
BC
100
AcDbXrecord
280
     1
102
RTVSPropertyOp0
 70
     1
102
RTVSPropertyOp1
 70
     1
102
RTVSPropertyOp2
 70
     1
102
RTVSPropertyOp3
 70
     1
102
RTVSPropertyOp4
 70
     1
102
RTVSPropertyOp5
 70
     1
102
RTVSPropertyOp6
 70
     1
102
RTVSPropertyOp7
 70
     1
102
RTVSPropertyOp8
 70
     1
102
RTVSPropertyOp9
 70
     1
102
RTVSPropertyOp10
 70
     1
102
RTVSPropertyOp11
 70
     1
102
RTVSPropertyOp12
 70
     1
102
RTVSPropertyOp13
 70
     1
102
RTVSPropertyOp14
 70
     1
102
RTVSPropertyOp15
 70
     1
102
RTVSPropertyOp16
 70
     1
102
RTVSPropertyOp17
 70
     1
102
RTVSPropertyOp18
 70
     1
102
RTVSPropertyOp19
 70
     1
102
RTVSPropertyOp20
 70
     1
102
RTVSPropertyOp21
 70
     1
102
RTVSPropertyOp22
 70
     1
102
RTVSPropertyOp23
 70
     1
102
RTVSPropertyOp24
 70
     1
102
RTVSPropertyOp25
 70
     1
102
RTVSPropertyOp26
 70
     1
102
RTVSPropertyOp27
 70
     1
102
RTVSPropertyOp28
 70
     1
102
RTVSPropertyOp29
 70
     1
102
RTVSPropertyOp30
 70
     1
102
RTVSPropertyOp31
 70
     1
102
RTVSPropertyOp32
 70
     1
102
RTVSPropertyOp33
 70
     1
102
RTVSPropertyOp34
 70
     1
102
RTVSPropertyOp35
 70
     1
102
RTVSPropertyOp36
 70
     1
102
RTVSPropertyOp37
 70
     1
102
RTVSPropertyOp38
 70
     1
102
RTVSPropertyOp39
 70
     1
102
RTVSPropertyOp40
 70
     1
102
RTVSPropertyOp41
 70
     1
102
RTVSPropertyOp42
 70
     1
102
RTVSPropertyOp43
 70
     1
102
RTVSPropertyOp44
 70
     1
102
RTVSPropertyOp45
 70
     1
102
RTVSPropertyOp46
 70
     1
102
RTVSPropertyOp47
 70
     1
102
RTVSPropertyOp48
 70
     1
102
RTVSPropertyOp49
 70
     1
102
RTVSPropertyOp50
 70
     1
102
RTVSPropertyOp51
 70
     0
102
RTVSPropertyOp52
 70
     0
102
RTVSPropertyOp53
 70
     1
102
RTVSPropertyOp54
 70
     1
102
RTVSPropertyOp55
 70
     1
102
RTVSPropertyOp56
 70
     1
102
RTVSPropertyOp57
 70
     1
102
RTVSPost2010Prop28
280
     0
102
RTVSPost2010PropOp28
 70
     1
102
RTVSPost2010Prop29
280
     1
102
RTVSPost2010PropOp29
 70
     1
102
RTVSPost2010Prop30
280
     1
102
RTVSPost2010PropOp30
 70
     1
102
RTVSPost2010Prop31
280
     0
102
RTVSPost2010PropOp31
 70
     1
102
RTVSPost2010Prop32
280
     0
102
RTVSPost2010PropOp32
 70
     1
102
RTVSPost2010Prop33
280
     0
102
RTVSPost2010PropOp33
 70
     1
102
RTVSPost2010Prop34
280
     0
102
RTVSPost2010PropOp34
 70
     1
102
RTVSPost2010Prop35
280
     0
102
RTVSPost2010PropOp35
 70
     1
102
RTVSPost2010Prop36
280
     0
102
RTVSPost2010PropOp36
 70
     1
102
RTVSPost2010Prop37
 90
       50
102
RTVSPost2010PropOp37
 70
     1
102
RTVSPost2010Prop38
140
0.0
102
RTVSPost2010PropOp38
 70
     1
102
RTVSPost2010Prop39
140
1.0
102
RTVSPost2010PropOp39
 70
     1
102
RTVSPost2010Prop40
 90
        0
102
RTVSPost2010PropOp40
 70
     1
102
RTVSPost2010Prop41ColorIndex
 90
       18
102
RTVSPost2010Prop41ColorRGB
 90
        0
102
RTVSPost2010PropOp41
 70
     1
102
RTVSPost2010Prop42
 90
       50
102
RTVSPost2010PropOp42
 70
     1
102
RTVSPost2010Prop43
 90
        3
102
RTVSPost2010PropOp43
 70
     1
102
RTVSPost2010Prop44ColorIndex
 90
        5
102
RTVSPost2010Prop44ColorRGB
 90
      255
102
RTVSPost2010PropOp44
 70
     1
102
RTVSPost2010Prop45
280
     0
102
RTVSPost2010PropOp45
 70
     1
102
RTVSPost2010Prop46
 90
       50
102
RTVSPost2010PropOp46
 70
     1
102
RTVSPost2010Prop47
 90
       50
102
RTVSPost2010PropOp47
 70
     1
102
RTVSPost2010Prop48
 90
       50
102
RTVSPost2010PropOp48
 70
     1
102
RTVSPost2010Prop49
280
     0
102
RTVSPost2010PropOp49
 70
     1
102
RTVSPost2010Prop50
 90
       50
102
RTVSPost2010PropOp50
 70
     1
102
RTVSPost2010Prop51ColorIndex
 90
      256
102
RTVSPost2010Prop51ColorRGB
 90
-16777216
102
RTVSPost2010PropOp51
 70
     0
102
RTVSPost2010Prop52
140
1.0
102
RTVSPost2010PropOp52
 70
     0
102
RTVSPost2010Prop53
 90
        2
102
RTVSPost2010PropOp53
 70
     1
102
RTVSPost2010Prop54
  1
strokes_ogs.tif
102
RTVSPost2010PropOp54
 70
     1
102
RTVSPost2010Prop55
280
     0
102
RTVSPost2010PropOp55
 70
     1
102
RTVSPost2010Prop56
140
1.0
102
RTVSPost2010PropOp56
 70
     1
102
RTVSPost2010Prop57
140
1.0
102
RTVSPost2010PropOp57
 70
     1
  0
XRECORD
  5
A1
102
{ACAD_REACTORS
330
A0
102
}
330
A0
100
AcDbXrecord
280
     1
102
RTVSPropertyOp0
 70
     1
102
RTVSPropertyOp1
 70
     1
102
RTVSPropertyOp2
 70
     1
102
RTVSPropertyOp3
 70
     1
102
RTVSPropertyOp4
 70
     1
102
RTVSPropertyOp5
 70
     1
102
RTVSPropertyOp6
 70
     1
102
RTVSPropertyOp7
 70
     1
102
RTVSPropertyOp8
 70
     1
102
RTVSPropertyOp9
 70
     1
102
RTVSPropertyOp10
 70
     1
102
RTVSPropertyOp11
 70
     1
102
RTVSPropertyOp12
 70
     1
102
RTVSPropertyOp13
 70
     1
102
RTVSPropertyOp14
 70
     1
102
RTVSPropertyOp15
 70
     1
102
RTVSPropertyOp16
 70
     1
102
RTVSPropertyOp17
 70
     1
102
RTVSPropertyOp18
 70
     1
102
RTVSPropertyOp19
 70
     1
102
RTVSPropertyOp20
 70
     1
102
RTVSPropertyOp21
 70
     1
102
RTVSPropertyOp22
 70
     1
102
RTVSPropertyOp23
 70
     1
102
RTVSPropertyOp24
 70
     1
102
RTVSPropertyOp25
 70
     1
102
RTVSPropertyOp26
 70
     1
102
RTVSPropertyOp27
 70
     1
102
RTVSPropertyOp28
 70
     1
102
RTVSPropertyOp29
 70
     1
102
RTVSPropertyOp30
 70
     1
102
RTVSPropertyOp31
 70
     1
102
RTVSPropertyOp32
 70
     1
102
RTVSPropertyOp33
 70
     1
102
RTVSPropertyOp34
 70
     1
102
RTVSPropertyOp35
 70
     1
102
RTVSPropertyOp36
 70
     1
102
RTVSPropertyOp37
 70
     1
102
RTVSPropertyOp38
 70
     1
102
RTVSPropertyOp39
 70
     1
102
RTVSPropertyOp40
 70
     1
102
RTVSPropertyOp41
 70
     1
102
RTVSPropertyOp42
 70
     1
102
RTVSPropertyOp43
 70
     1
102
RTVSPropertyOp44
 70
     1
102
RTVSPropertyOp45
 70
     1
102
RTVSPropertyOp46
 70
     1
102
RTVSPropertyOp47
 70
     1
102
RTVSPropertyOp48
 70
     1
102
RTVSPropertyOp49
 70
     1
102
RTVSPropertyOp50
 70
     1
102
RTVSPropertyOp51
 70
     0
102
RTVSPropertyOp52
 70
     0
102
RTVSPropertyOp53
 70
     1
102
RTVSPropertyOp54
 70
     1
102
RTVSPropertyOp55
 70
     1
102
RTVSPropertyOp56
 70
     1
102
RTVSPropertyOp57
 70
     1
102
RTVSPost2010Prop28
280
     0
102
RTVSPost2010PropOp28
 70
     1
102
RTVSPost2010Prop29
280
     1
102
RTVSPost2010PropOp29
 70
     1
102
RTVSPost2010Prop30
280
     1
102
RTVSPost2010PropOp30
 70
     1
102
RTVSPost2010Prop31
280
     0
102
RTVSPost2010PropOp31
 70
     1
102
RTVSPost2010Prop32
280
     0
102
RTVSPost2010PropOp32
 70
     1
102
RTVSPost2010Prop33
280
     0
102
RTVSPost2010PropOp33
 70
     1
102
RTVSPost2010Prop34
280
     0
102
RTVSPost2010PropOp34
 70
     1
102
RTVSPost2010Prop35
280
     0
102
RTVSPost2010PropOp35
 70
     1
102
RTVSPost2010Prop36
280
     0
102
RTVSPost2010PropOp36
 70
     1
102
RTVSPost2010Prop37
 90
       50
102
RTVSPost2010PropOp37
 70
     1
102
RTVSPost2010Prop38
140
0.0
102
RTVSPost2010PropOp38
 70
     1
102
RTVSPost2010Prop39
140
1.0
102
RTVSPost2010PropOp39
 70
     1
102
RTVSPost2010Prop40
 90
        0
102
RTVSPost2010PropOp40
 70
     1
102
RTVSPost2010Prop41ColorIndex
 90
       18
102
RTVSPost2010Prop41ColorRGB
 90
        0
102
RTVSPost2010PropOp41
 70
     1
102
RTVSPost2010Prop42
 90
       50
102
RTVSPost2010PropOp42
 70
     1
102
RTVSPost2010Prop43
 90
        3
102
RTVSPost2010PropOp43
 70
     1
102
RTVSPost2010Prop44ColorIndex
 90
        5
102
RTVSPost2010Prop44ColorRGB
 90
      255
102
RTVSPost2010PropOp44
 70
     1
102
RTVSPost2010Prop45
280
     0
102
RTVSPost2010PropOp45
 70
     1
102
RTVSPost2010Prop46
 90
       50
102
RTVSPost2010PropOp46
 70
     1
102
RTVSPost2010Prop47
 90
       50
102
RTVSPost2010PropOp47
 70
     1
102
RTVSPost2010Prop48
 90
       50
102
RTVSPost2010PropOp48
 70
     1
102
RTVSPost2010Prop49
280
     0
102
RTVSPost2010PropOp49
 70
     1
102
RTVSPost2010Prop50
 90
       50
102
RTVSPost2010PropOp50
 70
     1
102
RTVSPost2010Prop51ColorIndex
 90
      256
102
RTVSPost2010Prop51ColorRGB
 90
-16777216
102
RTVSPost2010PropOp51
 70
     0
102
RTVSPost2010Prop52
140
1.0
102
RTVSPost2010PropOp52
 70
     0
102
RTVSPost2010Prop53
 90
        2
102
RTVSPost2010PropOp53
 70
     1
102
RTVSPost2010Prop54
  1
strokes_ogs.tif
102
RTVSPost2010PropOp54
 70
     1
102
RTVSPost2010Prop55
280
     0
102
RTVSPost2010PropOp55
 70
     1
102
RTVSPost2010Prop56
140
1.0
102
RTVSPost2010PropOp56
 70
     1
102
RTVSPost2010Prop57
140
1.0
102
RTVSPost2010PropOp57
 70
     1
  0
XRECORD
  5
A3
102
{ACAD_REACTORS
330
A2
102
}
330
A2
100
AcDbXrecord
280
     1
102
RTVSPropertyOp0
 70
     1
102
RTVSPropertyOp1
 70
     1
102
RTVSPropertyOp2
 70
     1
102
RTVSPropertyOp3
 70
     1
102
RTVSPropertyOp4
 70
     1
102
RTVSPropertyOp5
 70
     1
102
RTVSPropertyOp6
 70
     1
102
RTVSPropertyOp7
 70
     1
102
RTVSPropertyOp8
 70
     1
102
RTVSPropertyOp9
 70
     1
102
RTVSPropertyOp10
 70
     1
102
RTVSPropertyOp11
 70
     1
102
RTVSPropertyOp12
 70
     1
102
RTVSPropertyOp13
 70
     1
102
RTVSPropertyOp14
 70
     1
102
RTVSPropertyOp15
 70
     1
102
RTVSPropertyOp16
 70
     1
102
RTVSPropertyOp17
 70
     1
102
RTVSPropertyOp18
 70
     1
102
RTVSPropertyOp19
 70
     1
102
RTVSPropertyOp20
 70
     1
102
RTVSPropertyOp21
 70
     1
102
RTVSPropertyOp22
 70
     1
102
RTVSPropertyOp23
 70
     1
102
RTVSPropertyOp24
 70
     1
102
RTVSPropertyOp25
 70
     1
102
RTVSPropertyOp26
 70
     1
102
RTVSPropertyOp27
 70
     1
102
RTVSPropertyOp28
 70
     1
102
RTVSPropertyOp29
 70
     1
102
RTVSPropertyOp30
 70
     1
102
RTVSPropertyOp31
 70
     1
102
RTVSPropertyOp32
 70
     1
102
RTVSPropertyOp33
 70
     1
102
RTVSPropertyOp34
 70
     1
102
RTVSPropertyOp35
 70
     1
102
RTVSPropertyOp36
 70
     1
102
RTVSPropertyOp37
 70
     1
102
RTVSPropertyOp38
 70
     1
102
RTVSPropertyOp39
 70
     1
102
RTVSPropertyOp40
 70
     1
102
RTVSPropertyOp41
 70
     1
102
RTVSPropertyOp42
 70
     1
102
RTVSPropertyOp43
 70
     1
102
RTVSPropertyOp44
 70
     1
102
RTVSPropertyOp45
 70
     1
102
RTVSPropertyOp46
 70
     1
102
RTVSPropertyOp47
 70
     1
102
RTVSPropertyOp48
 70
     1
102
RTVSPropertyOp49
 70
     1
102
RTVSPropertyOp50
 70
     1
102
RTVSPropertyOp51
 70
     0
102
RTVSPropertyOp52
 70
     0
102
RTVSPropertyOp53
 70
     1
102
RTVSPropertyOp54
 70
     1
102
RTVSPropertyOp55
 70
     1
102
RTVSPropertyOp56
 70
     1
102
RTVSPropertyOp57
 70
     1
102
RTVSPost2010Prop28
280
     0
102
RTVSPost2010PropOp28
 70
     1
102
RTVSPost2010Prop29
280
     1
102
RTVSPost2010PropOp29
 70
     1
102
RTVSPost2010Prop30
280
     1
102
RTVSPost2010PropOp30
 70
     1
102
RTVSPost2010Prop31
280
     0
102
RTVSPost2010PropOp31
 70
     1
102
RTVSPost2010Prop32
280
     0
102
RTVSPost2010PropOp32
 70
     1
102
RTVSPost2010Prop33
280
     0
102
RTVSPost2010PropOp33
 70
     1
102
RTVSPost2010Prop34
280
     0
102
RTVSPost2010PropOp34
 70
     1
102
RTVSPost2010Prop35
280
     0
102
RTVSPost2010PropOp35
 70
     1
102
RTVSPost2010Prop36
280
     0
102
RTVSPost2010PropOp36
 70
     1
102
RTVSPost2010Prop37
 90
       50
102
RTVSPost2010PropOp37
 70
     1
102
RTVSPost2010Prop38
140
0.0
102
RTVSPost2010PropOp38
 70
     1
102
RTVSPost2010Prop39
140
1.0
102
RTVSPost2010PropOp39
 70
     1
102
RTVSPost2010Prop40
 90
        0
102
RTVSPost2010PropOp40
 70
     1
102
RTVSPost2010Prop41ColorIndex
 90
       18
102
RTVSPost2010Prop41ColorRGB
 90
        0
102
RTVSPost2010PropOp41
 70
     1
102
RTVSPost2010Prop42
 90
       50
102
RTVSPost2010PropOp42
 70
     1
102
RTVSPost2010Prop43
 90
        3
102
RTVSPost2010PropOp43
 70
     1
102
RTVSPost2010Prop44ColorIndex
 90
        5
102
RTVSPost2010Prop44ColorRGB
 90
      255
102
RTVSPost2010PropOp44
 70
     1
102
RTVSPost2010Prop45
280
     0
102
RTVSPost2010PropOp45
 70
     1
102
RTVSPost2010Prop46
 90
       50
102
RTVSPost2010PropOp46
 70
     1
102
RTVSPost2010Prop47
 90
       50
102
RTVSPost2010PropOp47
 70
     1
102
RTVSPost2010Prop48
 90
       50
102
RTVSPost2010PropOp48
 70
     1
102
RTVSPost2010Prop49
280
     0
102
RTVSPost2010PropOp49
 70
     1
102
RTVSPost2010Prop50
 90
       50
102
RTVSPost2010PropOp50
 70
     1
102
RTVSPost2010Prop51ColorIndex
 90
      256
102
RTVSPost2010Prop51ColorRGB
 90
-16777216
102
RTVSPost2010PropOp51
 70
     0
102
RTVSPost2010Prop52
140
1.0
102
RTVSPost2010PropOp52
 70
     0
102
RTVSPost2010Prop53
 90
        2
102
RTVSPost2010PropOp53
 70
     1
102
RTVSPost2010Prop54
  1
strokes_ogs.tif
102
RTVSPost2010PropOp54
 70
     1
102
RTVSPost2010Prop55
280
     0
102
RTVSPost2010PropOp55
 70
     1
102
RTVSPost2010Prop56
140
1.0
102
RTVSPost2010PropOp56
 70
     1
102
RTVSPost2010Prop57
140
1.0
102
RTVSPost2010PropOp57
 70
     1
  0
XRECORD
  5
A5
102
{ACAD_REACTORS
330
A4
102
}
330
A4
100
AcDbXrecord
280
     1
102
RTVSPropertyOp0
 70
     1
102
RTVSPropertyOp1
 70
     1
102
RTVSPropertyOp2
 70
     1
102
RTVSPropertyOp3
 70
     1
102
RTVSPropertyOp4
 70
     1
102
RTVSPropertyOp5
 70
     1
102
RTVSPropertyOp6
 70
     1
102
RTVSPropertyOp7
 70
     1
102
RTVSPropertyOp8
 70
     1
102
RTVSPropertyOp9
 70
     1
102
RTVSPropertyOp10
 70
     1
102
RTVSPropertyOp11
 70
     1
102
RTVSPropertyOp12
 70
     1
102
RTVSPropertyOp13
 70
     1
102
RTVSPropertyOp14
 70
     1
102
RTVSPropertyOp15
 70
     1
102
RTVSPropertyOp16
 70
     1
102
RTVSPropertyOp17
 70
     1
102
RTVSPropertyOp18
 70
     1
102
RTVSPropertyOp19
 70
     1
102
RTVSPropertyOp20
 70
     1
102
RTVSPropertyOp21
 70
     1
102
RTVSPropertyOp22
 70
     1
102
RTVSPropertyOp23
 70
     1
102
RTVSPropertyOp24
 70
     1
102
RTVSPropertyOp25
 70
     1
102
RTVSPropertyOp26
 70
     1
102
RTVSPropertyOp27
 70
     1
102
RTVSPropertyOp28
 70
     1
102
RTVSPropertyOp29
 70
     1
102
RTVSPropertyOp30
 70
     1
102
RTVSPropertyOp31
 70
     1
102
RTVSPropertyOp32
 70
     1
102
RTVSPropertyOp33
 70
     1
102
RTVSPropertyOp34
 70
     1
102
RTVSPropertyOp35
 70
     1
102
RTVSPropertyOp36
 70
     1
102
RTVSPropertyOp37
 70
     1
102
RTVSPropertyOp38
 70
     1
102
RTVSPropertyOp39
 70
     1
102
RTVSPropertyOp40
 70
     1
102
RTVSPropertyOp41
 70
     1
102
RTVSPropertyOp42
 70
     1
102
RTVSPropertyOp43
 70
     1
102
RTVSPropertyOp44
 70
     1
102
RTVSPropertyOp45
 70
     1
102
RTVSPropertyOp46
 70
     1
102
RTVSPropertyOp47
 70
     1
102
RTVSPropertyOp48
 70
     1
102
RTVSPropertyOp49
 70
     1
102
RTVSPropertyOp50
 70
     1
102
RTVSPropertyOp51
 70
     0
102
RTVSPropertyOp52
 70
     0
102
RTVSPropertyOp53
 70
     1
102
RTVSPropertyOp54
 70
     1
102
RTVSPropertyOp55
 70
     1
102
RTVSPropertyOp56
 70
     1
102
RTVSPropertyOp57
 70
     1
102
RTVSPost2010Prop28
280
     0
102
RTVSPost2010PropOp28
 70
     1
102
RTVSPost2010Prop29
280
     1
102
RTVSPost2010PropOp29
 70
     1
102
RTVSPost2010Prop30
280
     1
102
RTVSPost2010PropOp30
 70
     1
102
RTVSPost2010Prop31
280
     0
102
RTVSPost2010PropOp31
 70
     1
102
RTVSPost2010Prop32
280
     0
102
RTVSPost2010PropOp32
 70
     1
102
RTVSPost2010Prop33
280
     0
102
RTVSPost2010PropOp33
 70
     1
102
RTVSPost2010Prop34
280
     0
102
RTVSPost2010PropOp34
 70
     1
102
RTVSPost2010Prop35
280
     0
102
RTVSPost2010PropOp35
 70
     1
102
RTVSPost2010Prop36
280
     0
102
RTVSPost2010PropOp36
 70
     1
102
RTVSPost2010Prop37
 90
       50
102
RTVSPost2010PropOp37
 70
     1
102
RTVSPost2010Prop38
140
0.0
102
RTVSPost2010PropOp38
 70
     1
102
RTVSPost2010Prop39
140
1.0
102
RTVSPost2010PropOp39
 70
     1
102
RTVSPost2010Prop40
 90
        0
102
RTVSPost2010PropOp40
 70
     1
102
RTVSPost2010Prop41ColorIndex
 90
       18
102
RTVSPost2010Prop41ColorRGB
 90
        0
102
RTVSPost2010PropOp41
 70
     1
102
RTVSPost2010Prop42
 90
       50
102
RTVSPost2010PropOp42
 70
     1
102
RTVSPost2010Prop43
 90
        3
102
RTVSPost2010PropOp43
 70
     1
102
RTVSPost2010Prop44ColorIndex
 90
        5
102
RTVSPost2010Prop44ColorRGB
 90
      255
102
RTVSPost2010PropOp44
 70
     1
102
RTVSPost2010Prop45
280
     0
102
RTVSPost2010PropOp45
 70
     1
102
RTVSPost2010Prop46
 90
       50
102
RTVSPost2010PropOp46
 70
     1
102
RTVSPost2010Prop47
 90
       50
102
RTVSPost2010PropOp47
 70
     1
102
RTVSPost2010Prop48
 90
       50
102
RTVSPost2010PropOp48
 70
     1
102
RTVSPost2010Prop49
280
     0
102
RTVSPost2010PropOp49
 70
     1
102
RTVSPost2010Prop50
 90
       50
102
RTVSPost2010PropOp50
 70
     1
102
RTVSPost2010Prop51ColorIndex
 90
      256
102
RTVSPost2010Prop51ColorRGB
 90
-16777216
102
RTVSPost2010PropOp51
 70
     0
102
RTVSPost2010Prop52
140
1.0
102
RTVSPost2010PropOp52
 70
     0
102
RTVSPost2010Prop53
 90
        2
102
RTVSPost2010PropOp53
 70
     1
102
RTVSPost2010Prop54
  1
strokes_ogs.tif
102
RTVSPost2010PropOp54
 70
     1
102
RTVSPost2010Prop55
280
     0
102
RTVSPost2010PropOp55
 70
     1
102
RTVSPost2010Prop56
140
1.0
102
RTVSPost2010PropOp56
 70
     1
102
RTVSPost2010Prop57
140
1.0
102
RTVSPost2010PropOp57
 70
     1
  0
XRECORD
  5
A7
102
{ACAD_REACTORS
330
A6
102
}
330
A6
100
AcDbXrecord
280
     1
102
RTVSPropertyOp0
 70
     1
102
RTVSPropertyOp1
 70
     1
102
RTVSPropertyOp2
 70
     1
102
RTVSPropertyOp3
 70
     1
102
RTVSPropertyOp4
 70
     1
102
RTVSPropertyOp5
 70
     1
102
RTVSPropertyOp6
 70
     1
102
RTVSPropertyOp7
 70
     1
102
RTVSPropertyOp8
 70
     1
102
RTVSPropertyOp9
 70
     1
102
RTVSPropertyOp10
 70
     1
102
RTVSPropertyOp11
 70
     1
102
RTVSPropertyOp12
 70
     1
102
RTVSPropertyOp13
 70
     1
102
RTVSPropertyOp14
 70
     1
102
RTVSPropertyOp15
 70
     1
102
RTVSPropertyOp16
 70
     1
102
RTVSPropertyOp17
 70
     1
102
RTVSPropertyOp18
 70
     1
102
RTVSPropertyOp19
 70
     1
102
RTVSPropertyOp20
 70
     1
102
RTVSPropertyOp21
 70
     1
102
RTVSPropertyOp22
 70
     1
102
RTVSPropertyOp23
 70
     1
102
RTVSPropertyOp24
 70
     1
102
RTVSPropertyOp25
 70
     1
102
RTVSPropertyOp26
 70
     1
102
RTVSPropertyOp27
 70
     1
102
RTVSPropertyOp28
 70
     1
102
RTVSPropertyOp29
 70
     1
102
RTVSPropertyOp30
 70
     1
102
RTVSPropertyOp31
 70
     1
102
RTVSPropertyOp32
 70
     1
102
RTVSPropertyOp33
 70
     1
102
RTVSPropertyOp34
 70
     1
102
RTVSPropertyOp35
 70
     1
102
RTVSPropertyOp36
 70
     1
102
RTVSPropertyOp37
 70
     1
102
RTVSPropertyOp38
 70
     1
102
RTVSPropertyOp39
 70
     1
102
RTVSPropertyOp40
 70
     1
102
RTVSPropertyOp41
 70
     1
102
RTVSPropertyOp42
 70
     1
102
RTVSPropertyOp43
 70
     1
102
RTVSPropertyOp44
 70
     1
102
RTVSPropertyOp45
 70
     1
102
RTVSPropertyOp46
 70
     1
102
RTVSPropertyOp47
 70
     1
102
RTVSPropertyOp48
 70
     1
102
RTVSPropertyOp49
 70
     1
102
RTVSPropertyOp50
 70
     1
102
RTVSPropertyOp51
 70
     0
102
RTVSPropertyOp52
 70
     0
102
RTVSPropertyOp53
 70
     1
102
RTVSPropertyOp54
 70
     1
102
RTVSPropertyOp55
 70
     1
102
RTVSPropertyOp56
 70
     1
102
RTVSPropertyOp57
 70
     1
102
RTVSPost2010Prop28
280
     0
102
RTVSPost2010PropOp28
 70
     1
102
RTVSPost2010Prop29
280
     1
102
RTVSPost2010PropOp29
 70
     1
102
RTVSPost2010Prop30
280
     1
102
RTVSPost2010PropOp30
 70
     1
102
RTVSPost2010Prop31
280
     0
102
RTVSPost2010PropOp31
 70
     1
102
RTVSPost2010Prop32
280
     0
102
RTVSPost2010PropOp32
 70
     1
102
RTVSPost2010Prop33
280
     0
102
RTVSPost2010PropOp33
 70
     1
102
RTVSPost2010Prop34
280
     0
102
RTVSPost2010PropOp34
 70
     1
102
RTVSPost2010Prop35
280
     0
102
RTVSPost2010PropOp35
 70
     1
102
RTVSPost2010Prop36
280
     0
102
RTVSPost2010PropOp36
 70
     1
102
RTVSPost2010Prop37
 90
       50
102
RTVSPost2010PropOp37
 70
     1
102
RTVSPost2010Prop38
140
0.0
102
RTVSPost2010PropOp38
 70
     1
102
RTVSPost2010Prop39
140
1.0
102
RTVSPost2010PropOp39
 70
     1
102
RTVSPost2010Prop40
 90
        0
102
RTVSPost2010PropOp40
 70
     1
102
RTVSPost2010Prop41ColorIndex
 90
       18
102
RTVSPost2010Prop41ColorRGB
 90
        0
102
RTVSPost2010PropOp41
 70
     1
102
RTVSPost2010Prop42
 90
       50
102
RTVSPost2010PropOp42
 70
     1
102
RTVSPost2010Prop43
 90
        3
102
RTVSPost2010PropOp43
 70
     1
102
RTVSPost2010Prop44ColorIndex
 90
        5
102
RTVSPost2010Prop44ColorRGB
 90
      255
102
RTVSPost2010PropOp44
 70
     1
102
RTVSPost2010Prop45
280
     0
102
RTVSPost2010PropOp45
 70
     1
102
RTVSPost2010Prop46
 90
       50
102
RTVSPost2010PropOp46
 70
     1
102
RTVSPost2010Prop47
 90
       50
102
RTVSPost2010PropOp47
 70
     1
102
RTVSPost2010Prop48
 90
       50
102
RTVSPost2010PropOp48
 70
     1
102
RTVSPost2010Prop49
280
     0
102
RTVSPost2010PropOp49
 70
     1
102
RTVSPost2010Prop50
 90
       50
102
RTVSPost2010PropOp50
 70
     1
102
RTVSPost2010Prop51ColorIndex
 90
      256
102
RTVSPost2010Prop51ColorRGB
 90
-16777216
102
RTVSPost2010PropOp51
 70
     0
102
RTVSPost2010Prop52
140
1.0
102
RTVSPost2010PropOp52
 70
     0
102
RTVSPost2010Prop53
 90
        2
102
RTVSPost2010PropOp53
 70
     1
102
RTVSPost2010Prop54
  1
strokes_ogs.tif
102
RTVSPost2010PropOp54
 70
     1
102
RTVSPost2010Prop55
280
     0
102
RTVSPost2010PropOp55
 70
     1
102
RTVSPost2010Prop56
140
1.0
102
RTVSPost2010PropOp56
 70
     1
102
RTVSPost2010Prop57
140
1.0
102
RTVSPost2010PropOp57
 70
     1
  0
XRECORD
  5
AD
102
{ACAD_REACTORS
330
AC
102
}
330
AC
100
AcDbXrecord
280
     1
102
RTVSPropertyOp0
 70
     1
102
RTVSPropertyOp1
 70
     1
102
RTVSPropertyOp2
 70
     1
102
RTVSPropertyOp3
 70
     1
102
RTVSPropertyOp4
 70
     1
102
RTVSPropertyOp5
 70
     1
102
RTVSPropertyOp6
 70
     1
102
RTVSPropertyOp7
 70
     1
102
RTVSPropertyOp8
 70
     1
102
RTVSPropertyOp9
 70
     1
102
RTVSPropertyOp10
 70
     1
102
RTVSPropertyOp11
 70
     1
102
RTVSPropertyOp12
 70
     1
102
RTVSPropertyOp13
 70
     1
102
RTVSPropertyOp14
 70
     1
102
RTVSPropertyOp15
 70
     1
102
RTVSPropertyOp16
 70
     1
102
RTVSPropertyOp17
 70
     1
102
RTVSPropertyOp18
 70
     1
102
RTVSPropertyOp19
 70
     1
102
RTVSPropertyOp20
 70
     1
102
RTVSPropertyOp21
 70
     1
102
RTVSPropertyOp22
 70
     1
102
RTVSPropertyOp23
 70
     1
102
RTVSPropertyOp24
 70
     1
102
RTVSPropertyOp25
 70
     1
102
RTVSPropertyOp26
 70
     1
102
RTVSPropertyOp27
 70
     1
102
RTVSPropertyOp28
 70
     1
102
RTVSPropertyOp29
 70
     1
102
RTVSPropertyOp30
 70
     1
102
RTVSPropertyOp31
 70
     1
102
RTVSPropertyOp32
 70
     1
102
RTVSPropertyOp33
 70
     1
102
RTVSPropertyOp34
 70
     1
102
RTVSPropertyOp35
 70
     1
102
RTVSPropertyOp36
 70
     1
102
RTVSPropertyOp37
 70
     1
102
RTVSPropertyOp38
 70
     1
102
RTVSPropertyOp39
 70
     1
102
RTVSPropertyOp40
 70
     1
102
RTVSPropertyOp41
 70
     1
102
RTVSPropertyOp42
 70
     1
102
RTVSPropertyOp43
 70
     1
102
RTVSPropertyOp44
 70
     1
102
RTVSPropertyOp45
 70
     1
102
RTVSPropertyOp46
 70
     1
102
RTVSPropertyOp47
 70
     1
102
RTVSPropertyOp48
 70
     1
102
RTVSPropertyOp49
 70
     1
102
RTVSPropertyOp50
 70
     1
102
RTVSPropertyOp51
 70
     0
102
RTVSPropertyOp52
 70
     0
102
RTVSPropertyOp53
 70
     1
102
RTVSPropertyOp54
 70
     1
102
RTVSPropertyOp55
 70
     1
102
RTVSPropertyOp56
 70
     1
102
RTVSPropertyOp57
 70
     1
102
RTVSPost2010Prop28
280
     0
102
RTVSPost2010PropOp28
 70
     1
102
RTVSPost2010Prop29
280
     1
102
RTVSPost2010PropOp29
 70
     1
102
RTVSPost2010Prop30
280
     1
102
RTVSPost2010PropOp30
 70
     1
102
RTVSPost2010Prop31
280
     0
102
RTVSPost2010PropOp31
 70
     1
102
RTVSPost2010Prop32
280
     0
102
RTVSPost2010PropOp32
 70
     1
102
RTVSPost2010Prop33
280
     0
102
RTVSPost2010PropOp33
 70
     1
102
RTVSPost2010Prop34
280
     0
102
RTVSPost2010PropOp34
 70
     1
102
RTVSPost2010Prop35
280
     0
102
RTVSPost2010PropOp35
 70
     1
102
RTVSPost2010Prop36
280
     0
102
RTVSPost2010PropOp36
 70
     1
102
RTVSPost2010Prop37
 90
       50
102
RTVSPost2010PropOp37
 70
     1
102
RTVSPost2010Prop38
140
0.0
102
RTVSPost2010PropOp38
 70
     1
102
RTVSPost2010Prop39
140
1.0
102
RTVSPost2010PropOp39
 70
     1
102
RTVSPost2010Prop40
 90
        0
102
RTVSPost2010PropOp40
 70
     1
102
RTVSPost2010Prop41ColorIndex
 90
       18
102
RTVSPost2010Prop41ColorRGB
 90
        0
102
RTVSPost2010PropOp41
 70
     1
102
RTVSPost2010Prop42
 90
       50
102
RTVSPost2010PropOp42
 70
     1
102
RTVSPost2010Prop43
 90
        3
102
RTVSPost2010PropOp43
 70
     1
102
RTVSPost2010Prop44ColorIndex
 90
        5
102
RTVSPost2010Prop44ColorRGB
 90
      255
102
RTVSPost2010PropOp44
 70
     1
102
RTVSPost2010Prop45
280
     0
102
RTVSPost2010PropOp45
 70
     1
102
RTVSPost2010Prop46
 90
       50
102
RTVSPost2010PropOp46
 70
     1
102
RTVSPost2010Prop47
 90
       50
102
RTVSPost2010PropOp47
 70
     1
102
RTVSPost2010Prop48
 90
       50
102
RTVSPost2010PropOp48
 70
     1
102
RTVSPost2010Prop49
280
     0
102
RTVSPost2010PropOp49
 70
     1
102
RTVSPost2010Prop50
 90
       50
102
RTVSPost2010PropOp50
 70
     1
102
RTVSPost2010Prop51ColorIndex
 90
      256
102
RTVSPost2010Prop51ColorRGB
 90
-16777216
102
RTVSPost2010PropOp51
 70
     0
102
RTVSPost2010Prop52
140
1.0
102
RTVSPost2010PropOp52
 70
     0
102
RTVSPost2010Prop53
 90
        2
102
RTVSPost2010PropOp53
 70
     1
102
RTVSPost2010Prop54
  1
strokes_ogs.tif
102
RTVSPost2010PropOp54
 70
     1
102
RTVSPost2010Prop55
280
     0
102
RTVSPost2010PropOp55
 70
     1
102
RTVSPost2010Prop56
140
1.0
102
RTVSPost2010PropOp56
 70
     1
102
RTVSPost2010Prop57
140
1.0
102
RTVSPost2010PropOp57
 70
     1
  0
XRECORD
  5
C1
102
{ACAD_REACTORS
330
C0
102
}
330
C0
100
AcDbXrecord
280
     1
102
RTVSPropertyOp0
 70
     0
102
RTVSPropertyOp1
 70
     0
102
RTVSPropertyOp2
 70
     0
102
RTVSPropertyOp3
 70
     0
102
RTVSPropertyOp4
 70
     0
102
RTVSPropertyOp5
 70
     0
102
RTVSPropertyOp6
 70
     0
102
RTVSPropertyOp7
 70
     0
102
RTVSPropertyOp8
 70
     0
102
RTVSPropertyOp9
 70
     0
102
RTVSPropertyOp10
 70
     0
102
RTVSPropertyOp11
 70
     0
102
RTVSPropertyOp12
 70
     0
102
RTVSPropertyOp13
 70
     0
102
RTVSPropertyOp14
 70
     2
102
RTVSPropertyOp15
 70
     0
102
RTVSPropertyOp16
 70
     0
102
RTVSPropertyOp17
 70
     0
102
RTVSPropertyOp18
 70
     0
102
RTVSPropertyOp19
 70
     0
102
RTVSPropertyOp20
 70
     0
102
RTVSPropertyOp21
 70
     0
102
RTVSPropertyOp22
 70
     0
102
RTVSPropertyOp23
 70
     0
102
RTVSPropertyOp24
 70
     0
102
RTVSPropertyOp25
 70
     0
102
RTVSPropertyOp26
 70
     0
102
RTVSPropertyOp27
 70
     0
102
RTVSPropertyOp28
 70
     0
102
RTVSPropertyOp29
 70
     0
102
RTVSPropertyOp30
 70
     0
102
RTVSPropertyOp31
 70
     0
102
RTVSPropertyOp32
 70
     0
102
RTVSPropertyOp33
 70
     0
102
RTVSPropertyOp34
 70
     0
102
RTVSPropertyOp35
 70
     0
102
RTVSPropertyOp36
 70
     0
102
RTVSPropertyOp37
 70
     0
102
RTVSPropertyOp38
 70
     0
102
RTVSPropertyOp39
 70
     0
102
RTVSPropertyOp40
 70
     0
102
RTVSPropertyOp41
 70
     0
102
RTVSPropertyOp42
 70
     0
102
RTVSPropertyOp43
 70
     0
102
RTVSPropertyOp44
 70
     0
102
RTVSPropertyOp45
 70
     0
102
RTVSPropertyOp46
 70
     0
102
RTVSPropertyOp47
 70
     0
102
RTVSPropertyOp48
 70
     0
102
RTVSPropertyOp49
 70
     0
102
RTVSPropertyOp50
 70
     0
102
RTVSPropertyOp51
 70
     0
102
RTVSPropertyOp52
 70
     0
102
RTVSPropertyOp53
 70
     0
102
RTVSPropertyOp54
 70
     0
102
RTVSPropertyOp55
 70
     0
102
RTVSPropertyOp56
 70
     0
102
RTVSPropertyOp57
 70
     0
102
RTVSPost2010Prop28
280
     0
102
RTVSPost2010PropOp28
 70
     0
102
RTVSPost2010Prop29
280
     1
102
RTVSPost2010PropOp29
 70
     0
102
RTVSPost2010Prop30
280
     1
102
RTVSPost2010PropOp30
 70
     0
102
RTVSPost2010Prop31
280
     0
102
RTVSPost2010PropOp31
 70
     0
102
RTVSPost2010Prop32
280
     0
102
RTVSPost2010PropOp32
 70
     0
102
RTVSPost2010Prop33
280
     0
102
RTVSPost2010PropOp33
 70
     0
102
RTVSPost2010Prop34
280
     0
102
RTVSPost2010PropOp34
 70
     0
102
RTVSPost2010Prop35
280
     0
102
RTVSPost2010PropOp35
 70
     0
102
RTVSPost2010Prop36
280
     0
102
RTVSPost2010PropOp36
 70
     0
102
RTVSPost2010Prop37
 90
       50
102
RTVSPost2010PropOp37
 70
     0
102
RTVSPost2010Prop38
140
0.0
102
RTVSPost2010PropOp38
 70
     0
102
RTVSPost2010Prop39
140
1.0
102
RTVSPost2010PropOp39
 70
     0
102
RTVSPost2010Prop40
 90
        0
102
RTVSPost2010PropOp40
 70
     0
102
RTVSPost2010Prop41ColorIndex
 90
       18
102
RTVSPost2010Prop41ColorRGB
 90
        0
102
RTVSPost2010PropOp41
 70
     0
102
RTVSPost2010Prop42
 90
       50
102
RTVSPost2010PropOp42
 70
     0
102
RTVSPost2010Prop43
 90
        3
102
RTVSPost2010PropOp43
 70
     0
102
RTVSPost2010Prop44ColorIndex
 90
        5
102
RTVSPost2010Prop44ColorRGB
 90
      255
102
RTVSPost2010PropOp44
 70
     0
102
RTVSPost2010Prop45
280
     0
102
RTVSPost2010PropOp45
 70
     0
102
RTVSPost2010Prop46
 90
       50
102
RTVSPost2010PropOp46
 70
     0
102
RTVSPost2010Prop47
 90
       50
102
RTVSPost2010PropOp47
 70
     0
102
RTVSPost2010Prop48
 90
       50
102
RTVSPost2010PropOp48
 70
     0
102
RTVSPost2010Prop49
280
     0
102
RTVSPost2010PropOp49
 70
     0
102
RTVSPost2010Prop50
 90
       50
102
RTVSPost2010PropOp50
 70
     0
102
RTVSPost2010Prop51ColorIndex
 90
      256
102
RTVSPost2010Prop51ColorRGB
 90
-16777216
102
RTVSPost2010PropOp51
 70
     0
102
RTVSPost2010Prop52
140
1.0
102
RTVSPost2010PropOp52
 70
     0
102
RTVSPost2010Prop53
 90
        2
102
RTVSPost2010PropOp53
 70
     0
102
RTVSPost2010Prop54
  1
strokes_ogs.tif
102
RTVSPost2010PropOp54
 70
     0
102
RTVSPost2010Prop55
280
     0
102
RTVSPost2010PropOp55
 70
     0
102
RTVSPost2010Prop56
140
1.0
102
RTVSPost2010PropOp56
 70
     0
102
RTVSPost2010Prop57
140
1.0
102
RTVSPost2010PropOp57
 70
     0
  0
XRECORD
  5
BB
102
{ACAD_REACTORS
330
BA
102
}
330
BA
100
AcDbXrecord
280
     1
102
RTVSPropertyOp0
 70
     1
102
RTVSPropertyOp1
 70
     1
102
RTVSPropertyOp2
 70
     1
102
RTVSPropertyOp3
 70
     1
102
RTVSPropertyOp4
 70
     1
102
RTVSPropertyOp5
 70
     1
102
RTVSPropertyOp6
 70
     1
102
RTVSPropertyOp7
 70
     1
102
RTVSPropertyOp8
 70
     1
102
RTVSPropertyOp9
 70
     1
102
RTVSPropertyOp10
 70
     1
102
RTVSPropertyOp11
 70
     1
102
RTVSPropertyOp12
 70
     1
102
RTVSPropertyOp13
 70
     1
102
RTVSPropertyOp14
 70
     1
102
RTVSPropertyOp15
 70
     1
102
RTVSPropertyOp16
 70
     1
102
RTVSPropertyOp17
 70
     1
102
RTVSPropertyOp18
 70
     1
102
RTVSPropertyOp19
 70
     1
102
RTVSPropertyOp20
 70
     1
102
RTVSPropertyOp21
 70
     1
102
RTVSPropertyOp22
 70
     1
102
RTVSPropertyOp23
 70
     1
102
RTVSPropertyOp24
 70
     1
102
RTVSPropertyOp25
 70
     1
102
RTVSPropertyOp26
 70
     1
102
RTVSPropertyOp27
 70
     1
102
RTVSPropertyOp28
 70
     1
102
RTVSPropertyOp29
 70
     1
102
RTVSPropertyOp30
 70
     1
102
RTVSPropertyOp31
 70
     1
102
RTVSPropertyOp32
 70
     1
102
RTVSPropertyOp33
 70
     1
102
RTVSPropertyOp34
 70
     1
102
RTVSPropertyOp35
 70
     1
102
RTVSPropertyOp36
 70
     1
102
RTVSPropertyOp37
 70
     1
102
RTVSPropertyOp38
 70
     1
102
RTVSPropertyOp39
 70
     1
102
RTVSPropertyOp40
 70
     1
102
RTVSPropertyOp41
 70
     1
102
RTVSPropertyOp42
 70
     1
102
RTVSPropertyOp43
 70
     1
102
RTVSPropertyOp44
 70
     1
102
RTVSPropertyOp45
 70
     1
102
RTVSPropertyOp46
 70
     1
102
RTVSPropertyOp47
 70
     1
102
RTVSPropertyOp48
 70
     1
102
RTVSPropertyOp49
 70
     1
102
RTVSPropertyOp50
 70
     1
102
RTVSPropertyOp51
 70
     0
102
RTVSPropertyOp52
 70
     0
102
RTVSPropertyOp53
 70
     1
102
RTVSPropertyOp54
 70
     1
102
RTVSPropertyOp55
 70
     1
102
RTVSPropertyOp56
 70
     1
102
RTVSPropertyOp57
 70
     1
102
RTVSPost2010Prop28
280
     0
102
RTVSPost2010PropOp28
 70
     1
102
RTVSPost2010Prop29
280
     1
102
RTVSPost2010PropOp29
 70
     1
102
RTVSPost2010Prop30
280
     1
102
RTVSPost2010PropOp30
 70
     1
102
RTVSPost2010Prop31
280
     0
102
RTVSPost2010PropOp31
 70
     1
102
RTVSPost2010Prop32
280
     0
102
RTVSPost2010PropOp32
 70
     1
102
RTVSPost2010Prop33
280
     0
102
RTVSPost2010PropOp33
 70
     1
102
RTVSPost2010Prop34
280
     0
102
RTVSPost2010PropOp34
 70
     1
102
RTVSPost2010Prop35
280
     0
102
RTVSPost2010PropOp35
 70
     1
102
RTVSPost2010Prop36
280
     0
102
RTVSPost2010PropOp36
 70
     1
102
RTVSPost2010Prop37
 90
       50
102
RTVSPost2010PropOp37
 70
     1
102
RTVSPost2010Prop38
140
0.0
102
RTVSPost2010PropOp38
 70
     1
102
RTVSPost2010Prop39
140
1.0
102
RTVSPost2010PropOp39
 70
     1
102
RTVSPost2010Prop40
 90
        0
102
RTVSPost2010PropOp40
 70
     1
102
RTVSPost2010Prop41ColorIndex
 90
       18
102
RTVSPost2010Prop41ColorRGB
 90
        0
102
RTVSPost2010PropOp41
 70
     1
102
RTVSPost2010Prop42
 90
       50
102
RTVSPost2010PropOp42
 70
     1
102
RTVSPost2010Prop43
 90
        3
102
RTVSPost2010PropOp43
 70
     1
102
RTVSPost2010Prop44ColorIndex
 90
        5
102
RTVSPost2010Prop44ColorRGB
 90
      255
102
RTVSPost2010PropOp44
 70
     1
102
RTVSPost2010Prop45
280
     0
102
RTVSPost2010PropOp45
 70
     1
102
RTVSPost2010Prop46
 90
       50
102
RTVSPost2010PropOp46
 70
     1
102
RTVSPost2010Prop47
 90
       50
102
RTVSPost2010PropOp47
 70
     1
102
RTVSPost2010Prop48
 90
       50
102
RTVSPost2010PropOp48
 70
     1
102
RTVSPost2010Prop49
280
     0
102
RTVSPost2010PropOp49
 70
     1
102
RTVSPost2010Prop50
 90
       50
102
RTVSPost2010PropOp50
 70
     1
102
RTVSPost2010Prop51ColorIndex
 90
      256
102
RTVSPost2010Prop51ColorRGB
 90
-16777216
102
RTVSPost2010PropOp51
 70
     0
102
RTVSPost2010Prop52
140
1.0
102
RTVSPost2010PropOp52
 70
     0
102
RTVSPost2010Prop53
 90
        2
102
RTVSPost2010PropOp53
 70
     1
102
RTVSPost2010Prop54
  1
strokes_ogs.tif
102
RTVSPost2010PropOp54
 70
     1
102
RTVSPost2010Prop55
280
     0
102
RTVSPost2010PropOp55
 70
     1
102
RTVSPost2010Prop56
140
1.0
102
RTVSPost2010PropOp56
 70
     1
102
RTVSPost2010Prop57
140
1.0
102
RTVSPost2010PropOp57
 70
     1
  0
XRECORD
  5
C3
102
{ACAD_REACTORS
330
C2
102
}
330
C2
100
AcDbXrecord
280
     1
102
RTVSPropertyOp0
 70
     0
102
RTVSPropertyOp1
 70
     0
102
RTVSPropertyOp2
 70
     0
102
RTVSPropertyOp3
 70
     0
102
RTVSPropertyOp4
 70
     0
102
RTVSPropertyOp5
 70
     0
102
RTVSPropertyOp6
 70
     0
102
RTVSPropertyOp7
 70
     0
102
RTVSPropertyOp8
 70
     0
102
RTVSPropertyOp9
 70
     0
102
RTVSPropertyOp10
 70
     0
102
RTVSPropertyOp11
 70
     0
102
RTVSPropertyOp12
 70
     0
102
RTVSPropertyOp13
 70
     0
102
RTVSPropertyOp14
 70
     2
102
RTVSPropertyOp15
 70
     0
102
RTVSPropertyOp16
 70
     0
102
RTVSPropertyOp17
 70
     0
102
RTVSPropertyOp18
 70
     0
102
RTVSPropertyOp19
 70
     0
102
RTVSPropertyOp20
 70
     0
102
RTVSPropertyOp21
 70
     0
102
RTVSPropertyOp22
 70
     0
102
RTVSPropertyOp23
 70
     0
102
RTVSPropertyOp24
 70
     0
102
RTVSPropertyOp25
 70
     0
102
RTVSPropertyOp26
 70
     0
102
RTVSPropertyOp27
 70
     0
102
RTVSPropertyOp28
 70
     0
102
RTVSPropertyOp29
 70
     0
102
RTVSPropertyOp30
 70
     0
102
RTVSPropertyOp31
 70
     0
102
RTVSPropertyOp32
 70
     0
102
RTVSPropertyOp33
 70
     0
102
RTVSPropertyOp34
 70
     0
102
RTVSPropertyOp35
 70
     0
102
RTVSPropertyOp36
 70
     0
102
RTVSPropertyOp37
 70
     0
102
RTVSPropertyOp38
 70
     0
102
RTVSPropertyOp39
 70
     0
102
RTVSPropertyOp40
 70
     0
102
RTVSPropertyOp41
 70
     0
102
RTVSPropertyOp42
 70
     0
102
RTVSPropertyOp43
 70
     0
102
RTVSPropertyOp44
 70
     0
102
RTVSPropertyOp45
 70
     0
102
RTVSPropertyOp46
 70
     0
102
RTVSPropertyOp47
 70
     0
102
RTVSPropertyOp48
 70
     0
102
RTVSPropertyOp49
 70
     0
102
RTVSPropertyOp50
 70
     0
102
RTVSPropertyOp51
 70
     0
102
RTVSPropertyOp52
 70
     0
102
RTVSPropertyOp53
 70
     0
102
RTVSPropertyOp54
 70
     0
102
RTVSPropertyOp55
 70
     0
102
RTVSPropertyOp56
 70
     0
102
RTVSPropertyOp57
 70
     0
102
RTVSPost2010Prop28
280
     0
102
RTVSPost2010PropOp28
 70
     0
102
RTVSPost2010Prop29
280
     1
102
RTVSPost2010PropOp29
 70
     0
102
RTVSPost2010Prop30
280
     1
102
RTVSPost2010PropOp30
 70
     0
102
RTVSPost2010Prop31
280
     0
102
RTVSPost2010PropOp31
 70
     0
102
RTVSPost2010Prop32
280
     0
102
RTVSPost2010PropOp32
 70
     0
102
RTVSPost2010Prop33
280
     0
102
RTVSPost2010PropOp33
 70
     0
102
RTVSPost2010Prop34
280
     0
102
RTVSPost2010PropOp34
 70
     0
102
RTVSPost2010Prop35
280
     0
102
RTVSPost2010PropOp35
 70
     0
102
RTVSPost2010Prop36
280
     0
102
RTVSPost2010PropOp36
 70
     0
102
RTVSPost2010Prop37
 90
       50
102
RTVSPost2010PropOp37
 70
     0
102
RTVSPost2010Prop38
140
0.0
102
RTVSPost2010PropOp38
 70
     0
102
RTVSPost2010Prop39
140
1.0
102
RTVSPost2010PropOp39
 70
     0
102
RTVSPost2010Prop40
 90
        0
102
RTVSPost2010PropOp40
 70
     0
102
RTVSPost2010Prop41ColorIndex
 90
       18
102
RTVSPost2010Prop41ColorRGB
 90
        0
102
RTVSPost2010PropOp41
 70
     0
102
RTVSPost2010Prop42
 90
       50
102
RTVSPost2010PropOp42
 70
     0
102
RTVSPost2010Prop43
 90
        3
102
RTVSPost2010PropOp43
 70
     0
102
RTVSPost2010Prop44ColorIndex
 90
        5
102
RTVSPost2010Prop44ColorRGB
 90
      255
102
RTVSPost2010PropOp44
 70
     0
102
RTVSPost2010Prop45
280
     0
102
RTVSPost2010PropOp45
 70
     0
102
RTVSPost2010Prop46
 90
       50
102
RTVSPost2010PropOp46
 70
     0
102
RTVSPost2010Prop47
 90
       50
102
RTVSPost2010PropOp47
 70
     0
102
RTVSPost2010Prop48
 90
       50
102
RTVSPost2010PropOp48
 70
     0
102
RTVSPost2010Prop49
280
     0
102
RTVSPost2010PropOp49
 70
     0
102
RTVSPost2010Prop50
 90
       50
102
RTVSPost2010PropOp50
 70
     0
102
RTVSPost2010Prop51ColorIndex
 90
      256
102
RTVSPost2010Prop51ColorRGB
 90
-16777216
102
RTVSPost2010PropOp51
 70
     0
102
RTVSPost2010Prop52
140
1.0
102
RTVSPost2010PropOp52
 70
     0
102
RTVSPost2010Prop53
 90
        2
102
RTVSPost2010PropOp53
 70
     0
102
RTVSPost2010Prop54
  1
strokes_ogs.tif
102
RTVSPost2010PropOp54
 70
     0
102
RTVSPost2010Prop55
280
     0
102
RTVSPost2010PropOp55
 70
     0
102
RTVSPost2010Prop56
140
1.0
102
RTVSPost2010PropOp56
 70
     0
102
RTVSPost2010Prop57
140
1.0
102
RTVSPost2010PropOp57
 70
     0
  0
XRECORD
  5
B1
102
{ACAD_REACTORS
330
B0
102
}
330
B0
100
AcDbXrecord
280
     1
102
RTVSPropertyOp0
 70
     1
102
RTVSPropertyOp1
 70
     1
102
RTVSPropertyOp2
 70
     1
102
RTVSPropertyOp3
 70
     1
102
RTVSPropertyOp4
 70
     1
102
RTVSPropertyOp5
 70
     1
102
RTVSPropertyOp6
 70
     1
102
RTVSPropertyOp7
 70
     1
102
RTVSPropertyOp8
 70
     1
102
RTVSPropertyOp9
 70
     1
102
RTVSPropertyOp10
 70
     1
102
RTVSPropertyOp11
 70
     1
102
RTVSPropertyOp12
 70
     1
102
RTVSPropertyOp13
 70
     1
102
RTVSPropertyOp14
 70
     1
102
RTVSPropertyOp15
 70
     1
102
RTVSPropertyOp16
 70
     1
102
RTVSPropertyOp17
 70
     1
102
RTVSPropertyOp18
 70
     1
102
RTVSPropertyOp19
 70
     1
102
RTVSPropertyOp20
 70
     1
102
RTVSPropertyOp21
 70
     1
102
RTVSPropertyOp22
 70
     1
102
RTVSPropertyOp23
 70
     1
102
RTVSPropertyOp24
 70
     1
102
RTVSPropertyOp25
 70
     1
102
RTVSPropertyOp26
 70
     1
102
RTVSPropertyOp27
 70
     1
102
RTVSPropertyOp28
 70
     1
102
RTVSPropertyOp29
 70
     1
102
RTVSPropertyOp30
 70
     1
102
RTVSPropertyOp31
 70
     1
102
RTVSPropertyOp32
 70
     1
102
RTVSPropertyOp33
 70
     1
102
RTVSPropertyOp34
 70
     1
102
RTVSPropertyOp35
 70
     1
102
RTVSPropertyOp36
 70
     1
102
RTVSPropertyOp37
 70
     1
102
RTVSPropertyOp38
 70
     1
102
RTVSPropertyOp39
 70
     1
102
RTVSPropertyOp40
 70
     1
102
RTVSPropertyOp41
 70
     1
102
RTVSPropertyOp42
 70
     1
102
RTVSPropertyOp43
 70
     1
102
RTVSPropertyOp44
 70
     1
102
RTVSPropertyOp45
 70
     1
102
RTVSPropertyOp46
 70
     1
102
RTVSPropertyOp47
 70
     1
102
RTVSPropertyOp48
 70
     1
102
RTVSPropertyOp49
 70
     1
102
RTVSPropertyOp50
 70
     1
102
RTVSPropertyOp51
 70
     0
102
RTVSPropertyOp52
 70
     0
102
RTVSPropertyOp53
 70
     1
102
RTVSPropertyOp54
 70
     1
102
RTVSPropertyOp55
 70
     1
102
RTVSPropertyOp56
 70
     1
102
RTVSPropertyOp57
 70
     1
102
RTVSPost2010Prop28
280
     0
102
RTVSPost2010PropOp28
 70
     1
102
RTVSPost2010Prop29
280
     1
102
RTVSPost2010PropOp29
 70
     1
102
RTVSPost2010Prop30
280
     1
102
RTVSPost2010PropOp30
 70
     1
102
RTVSPost2010Prop31
280
     0
102
RTVSPost2010PropOp31
 70
     1
102
RTVSPost2010Prop32
280
     0
102
RTVSPost2010PropOp32
 70
     1
102
RTVSPost2010Prop33
280
     0
102
RTVSPost2010PropOp33
 70
     1
102
RTVSPost2010Prop34
280
     0
102
RTVSPost2010PropOp34
 70
     1
102
RTVSPost2010Prop35
280
     0
102
RTVSPost2010PropOp35
 70
     1
102
RTVSPost2010Prop36
280
     0
102
RTVSPost2010PropOp36
 70
     1
102
RTVSPost2010Prop37
 90
       50
102
RTVSPost2010PropOp37
 70
     1
102
RTVSPost2010Prop38
140
0.0
102
RTVSPost2010PropOp38
 70
     1
102
RTVSPost2010Prop39
140
1.0
102
RTVSPost2010PropOp39
 70
     1
102
RTVSPost2010Prop40
 90
        0
102
RTVSPost2010PropOp40
 70
     1
102
RTVSPost2010Prop41ColorIndex
 90
       18
102
RTVSPost2010Prop41ColorRGB
 90
        0
102
RTVSPost2010PropOp41
 70
     1
102
RTVSPost2010Prop42
 90
       50
102
RTVSPost2010PropOp42
 70
     1
102
RTVSPost2010Prop43
 90
        3
102
RTVSPost2010PropOp43
 70
     1
102
RTVSPost2010Prop44ColorIndex
 90
        5
102
RTVSPost2010Prop44ColorRGB
 90
      255
102
RTVSPost2010PropOp44
 70
     1
102
RTVSPost2010Prop45
280
     0
102
RTVSPost2010PropOp45
 70
     1
102
RTVSPost2010Prop46
 90
       50
102
RTVSPost2010PropOp46
 70
     1
102
RTVSPost2010Prop47
 90
       50
102
RTVSPost2010PropOp47
 70
     1
102
RTVSPost2010Prop48
 90
       50
102
RTVSPost2010PropOp48
 70
     1
102
RTVSPost2010Prop49
280
     0
102
RTVSPost2010PropOp49
 70
     1
102
RTVSPost2010Prop50
 90
       50
102
RTVSPost2010PropOp50
 70
     1
102
RTVSPost2010Prop51ColorIndex
 90
      256
102
RTVSPost2010Prop51ColorRGB
 90
-16777216
102
RTVSPost2010PropOp51
 70
     0
102
RTVSPost2010Prop52
140
1.0
102
RTVSPost2010PropOp52
 70
     0
102
RTVSPost2010Prop53
 90
        2
102
RTVSPost2010PropOp53
 70
     1
102
RTVSPost2010Prop54
  1
strokes_ogs.tif
102
RTVSPost2010PropOp54
 70
     1
102
RTVSPost2010Prop55
280
     0
102
RTVSPost2010PropOp55
 70
     1
102
RTVSPost2010Prop56
140
1.0
102
RTVSPost2010PropOp56
 70
     1
102
RTVSPost2010Prop57
140
1.0
102
RTVSPost2010PropOp57
 70
     1
  0
XRECORD
  5
CF
102
{ACAD_REACTORS
330
CE
102
}
330
CE
100
AcDbXrecord
280
     1
102
RTVSPropertyOp0
 70
     1
102
RTVSPropertyOp1
 70
     1
102
RTVSPropertyOp2
 70
     1
102
RTVSPropertyOp3
 70
     1
102
RTVSPropertyOp4
 70
     1
102
RTVSPropertyOp5
 70
     1
102
RTVSPropertyOp6
 70
     1
102
RTVSPropertyOp7
 70
     1
102
RTVSPropertyOp8
 70
     1
102
RTVSPropertyOp9
 70
     1
102
RTVSPropertyOp10
 70
     1
102
RTVSPropertyOp11
 70
     1
102
RTVSPropertyOp12
 70
     1
102
RTVSPropertyOp13
 70
     1
102
RTVSPropertyOp14
 70
     1
102
RTVSPropertyOp15
 70
     1
102
RTVSPropertyOp16
 70
     1
102
RTVSPropertyOp17
 70
     1
102
RTVSPropertyOp18
 70
     1
102
RTVSPropertyOp19
 70
     1
102
RTVSPropertyOp20
 70
     1
102
RTVSPropertyOp21
 70
     1
102
RTVSPropertyOp22
 70
     1
102
RTVSPropertyOp23
 70
     1
102
RTVSPropertyOp24
 70
     1
102
RTVSPropertyOp25
 70
     1
102
RTVSPropertyOp26
 70
     1
102
RTVSPropertyOp27
 70
     1
102
RTVSPropertyOp28
 70
     1
102
RTVSPropertyOp29
 70
     1
102
RTVSPropertyOp30
 70
     1
102
RTVSPropertyOp31
 70
     1
102
RTVSPropertyOp32
 70
     1
102
RTVSPropertyOp33
 70
     1
102
RTVSPropertyOp34
 70
     1
102
RTVSPropertyOp35
 70
     1
102
RTVSPropertyOp36
 70
     1
102
RTVSPropertyOp37
 70
     1
102
RTVSPropertyOp38
 70
     1
102
RTVSPropertyOp39
 70
     1
102
RTVSPropertyOp40
 70
     1
102
RTVSPropertyOp41
 70
     1
102
RTVSPropertyOp42
 70
     1
102
RTVSPropertyOp43
 70
     1
102
RTVSPropertyOp44
 70
     1
102
RTVSPropertyOp45
 70
     1
102
RTVSPropertyOp46
 70
     1
102
RTVSPropertyOp47
 70
     1
102
RTVSPropertyOp48
 70
     1
102
RTVSPropertyOp49
 70
     1
102
RTVSPropertyOp50
 70
     1
102
RTVSPropertyOp51
 70
     0
102
RTVSPropertyOp52
 70
     0
102
RTVSPropertyOp53
 70
     1
102
RTVSPropertyOp54
 70
     1
102
RTVSPropertyOp55
 70
     1
102
RTVSPropertyOp56
 70
     1
102
RTVSPropertyOp57
 70
     1
102
RTVSPost2010Prop28
280
     0
102
RTVSPost2010PropOp28
 70
     1
102
RTVSPost2010Prop29
280
     1
102
RTVSPost2010PropOp29
 70
     1
102
RTVSPost2010Prop30
280
     1
102
RTVSPost2010PropOp30
 70
     1
102
RTVSPost2010Prop31
280
     0
102
RTVSPost2010PropOp31
 70
     1
102
RTVSPost2010Prop32
280
     0
102
RTVSPost2010PropOp32
 70
     1
102
RTVSPost2010Prop33
280
     0
102
RTVSPost2010PropOp33
 70
     1
102
RTVSPost2010Prop34
280
     0
102
RTVSPost2010PropOp34
 70
     1
102
RTVSPost2010Prop35
280
     0
102
RTVSPost2010PropOp35
 70
     1
102
RTVSPost2010Prop36
280
     0
102
RTVSPost2010PropOp36
 70
     1
102
RTVSPost2010Prop37
 90
       50
102
RTVSPost2010PropOp37
 70
     1
102
RTVSPost2010Prop38
140
0.0
102
RTVSPost2010PropOp38
 70
     1
102
RTVSPost2010Prop39
140
1.0
102
RTVSPost2010PropOp39
 70
     1
102
RTVSPost2010Prop40
 90
        0
102
RTVSPost2010PropOp40
 70
     1
102
RTVSPost2010Prop41ColorIndex
 90
       18
102
RTVSPost2010Prop41ColorRGB
 90
        0
102
RTVSPost2010PropOp41
 70
     1
102
RTVSPost2010Prop42
 90
       50
102
RTVSPost2010PropOp42
 70
     1
102
RTVSPost2010Prop43
 90
        3
102
RTVSPost2010PropOp43
 70
     1
102
RTVSPost2010Prop44ColorIndex
 90
        5
102
RTVSPost2010Prop44ColorRGB
 90
      255
102
RTVSPost2010PropOp44
 70
     1
102
RTVSPost2010Prop45
280
     0
102
RTVSPost2010PropOp45
 70
     1
102
RTVSPost2010Prop46
 90
       50
102
RTVSPost2010PropOp46
 70
     1
102
RTVSPost2010Prop47
 90
       50
102
RTVSPost2010PropOp47
 70
     1
102
RTVSPost2010Prop48
 90
       50
102
RTVSPost2010PropOp48
 70
     1
102
RTVSPost2010Prop49
280
     0
102
RTVSPost2010PropOp49
 70
     1
102
RTVSPost2010Prop50
 90
       50
102
RTVSPost2010PropOp50
 70
     1
102
RTVSPost2010Prop51ColorIndex
 90
      256
102
RTVSPost2010Prop51ColorRGB
 90
-16777216
102
RTVSPost2010PropOp51
 70
     0
102
RTVSPost2010Prop52
140
1.0
102
RTVSPost2010PropOp52
 70
     0
102
RTVSPost2010Prop53
 90
        2
102
RTVSPost2010PropOp53
 70
     1
102
RTVSPost2010Prop54
  1
strokes_ogs.tif
102
RTVSPost2010PropOp54
 70
     1
102
RTVSPost2010Prop55
280
     0
102
RTVSPost2010PropOp55
 70
     1
102
RTVSPost2010Prop56
140
1.0
102
RTVSPost2010PropOp56
 70
     1
102
RTVSPost2010Prop57
140
1.0
102
RTVSPost2010PropOp57
 70
     1
  0
XRECORD
  5
CD
102
{ACAD_REACTORS
330
CC
102
}
330
CC
100
AcDbXrecord
280
     1
102
RTVSPropertyOp0
 70
     1
102
RTVSPropertyOp1
 70
     1
102
RTVSPropertyOp2
 70
     1
102
RTVSPropertyOp3
 70
     1
102
RTVSPropertyOp4
 70
     1
102
RTVSPropertyOp5
 70
     1
102
RTVSPropertyOp6
 70
     1
102
RTVSPropertyOp7
 70
     1
102
RTVSPropertyOp8
 70
     1
102
RTVSPropertyOp9
 70
     1
102
RTVSPropertyOp10
 70
     1
102
RTVSPropertyOp11
 70
     1
102
RTVSPropertyOp12
 70
     1
102
RTVSPropertyOp13
 70
     1
102
RTVSPropertyOp14
 70
     1
102
RTVSPropertyOp15
 70
     1
102
RTVSPropertyOp16
 70
     1
102
RTVSPropertyOp17
 70
     1
102
RTVSPropertyOp18
 70
     1
102
RTVSPropertyOp19
 70
     1
102
RTVSPropertyOp20
 70
     1
102
RTVSPropertyOp21
 70
     1
102
RTVSPropertyOp22
 70
     1
102
RTVSPropertyOp23
 70
     1
102
RTVSPropertyOp24
 70
     1
102
RTVSPropertyOp25
 70
     1
102
RTVSPropertyOp26
 70
     1
102
RTVSPropertyOp27
 70
     1
102
RTVSPropertyOp28
 70
     1
102
RTVSPropertyOp29
 70
     1
102
RTVSPropertyOp30
 70
     1
102
RTVSPropertyOp31
 70
     1
102
RTVSPropertyOp32
 70
     1
102
RTVSPropertyOp33
 70
     1
102
RTVSPropertyOp34
 70
     1
102
RTVSPropertyOp35
 70
     1
102
RTVSPropertyOp36
 70
     1
102
RTVSPropertyOp37
 70
     1
102
RTVSPropertyOp38
 70
     1
102
RTVSPropertyOp39
 70
     1
102
RTVSPropertyOp40
 70
     1
102
RTVSPropertyOp41
 70
     1
102
RTVSPropertyOp42
 70
     1
102
RTVSPropertyOp43
 70
     1
102
RTVSPropertyOp44
 70
     1
102
RTVSPropertyOp45
 70
     1
102
RTVSPropertyOp46
 70
     1
102
RTVSPropertyOp47
 70
     1
102
RTVSPropertyOp48
 70
     1
102
RTVSPropertyOp49
 70
     1
102
RTVSPropertyOp50
 70
     1
102
RTVSPropertyOp51
 70
     0
102
RTVSPropertyOp52
 70
     0
102
RTVSPropertyOp53
 70
     1
102
RTVSPropertyOp54
 70
     1
102
RTVSPropertyOp55
 70
     1
102
RTVSPropertyOp56
 70
     1
102
RTVSPropertyOp57
 70
     1
102
RTVSPost2010Prop28
280
     0
102
RTVSPost2010PropOp28
 70
     1
102
RTVSPost2010Prop29
280
     1
102
RTVSPost2010PropOp29
 70
     1
102
RTVSPost2010Prop30
280
     1
102
RTVSPost2010PropOp30
 70
     1
102
RTVSPost2010Prop31
280
     0
102
RTVSPost2010PropOp31
 70
     1
102
RTVSPost2010Prop32
280
     0
102
RTVSPost2010PropOp32
 70
     1
102
RTVSPost2010Prop33
280
     0
102
RTVSPost2010PropOp33
 70
     1
102
RTVSPost2010Prop34
280
     0
102
RTVSPost2010PropOp34
 70
     1
102
RTVSPost2010Prop35
280
     0
102
RTVSPost2010PropOp35
 70
     1
102
RTVSPost2010Prop36
280
     0
102
RTVSPost2010PropOp36
 70
     1
102
RTVSPost2010Prop37
 90
       50
102
RTVSPost2010PropOp37
 70
     1
102
RTVSPost2010Prop38
140
0.0
102
RTVSPost2010PropOp38
 70
     1
102
RTVSPost2010Prop39
140
1.0
102
RTVSPost2010PropOp39
 70
     1
102
RTVSPost2010Prop40
 90
        0
102
RTVSPost2010PropOp40
 70
     1
102
RTVSPost2010Prop41ColorIndex
 90
       18
102
RTVSPost2010Prop41ColorRGB
 90
        0
102
RTVSPost2010PropOp41
 70
     1
102
RTVSPost2010Prop42
 90
       50
102
RTVSPost2010PropOp42
 70
     1
102
RTVSPost2010Prop43
 90
        3
102
RTVSPost2010PropOp43
 70
     1
102
RTVSPost2010Prop44ColorIndex
 90
        5
102
RTVSPost2010Prop44ColorRGB
 90
      255
102
RTVSPost2010PropOp44
 70
     1
102
RTVSPost2010Prop45
280
     0
102
RTVSPost2010PropOp45
 70
     1
102
RTVSPost2010Prop46
 90
       50
102
RTVSPost2010PropOp46
 70
     1
102
RTVSPost2010Prop47
 90
       50
102
RTVSPost2010PropOp47
 70
     1
102
RTVSPost2010Prop48
 90
       50
102
RTVSPost2010PropOp48
 70
     1
102
RTVSPost2010Prop49
280
     0
102
RTVSPost2010PropOp49
 70
     1
102
RTVSPost2010Prop50
 90
       50
102
RTVSPost2010PropOp50
 70
     1
102
RTVSPost2010Prop51ColorIndex
 90
      256
102
RTVSPost2010Prop51ColorRGB
 90
-16777216
102
RTVSPost2010PropOp51
 70
     0
102
RTVSPost2010Prop52
140
1.0
102
RTVSPost2010PropOp52
 70
     0
102
RTVSPost2010Prop53
 90
        2
102
RTVSPost2010PropOp53
 70
     1
102
RTVSPost2010Prop54
  1
strokes_ogs.tif
102
RTVSPost2010PropOp54
 70
     1
102
RTVSPost2010Prop55
280
     0
102
RTVSPost2010PropOp55
 70
     1
102
RTVSPost2010Prop56
140
1.0
102
RTVSPost2010PropOp56
 70
     1
102
RTVSPost2010Prop57
140
1.0
102
RTVSPost2010PropOp57
 70
     1
  0
XRECORD
  5
C7
102
{ACAD_REACTORS
330
C6
102
}
330
C6
100
AcDbXrecord
280
     1
102
RTVSPropertyOp0
 70
     1
102
RTVSPropertyOp1
 70
     1
102
RTVSPropertyOp2
 70
     1
102
RTVSPropertyOp3
 70
     1
102
RTVSPropertyOp4
 70
     1
102
RTVSPropertyOp5
 70
     1
102
RTVSPropertyOp6
 70
     1
102
RTVSPropertyOp7
 70
     1
102
RTVSPropertyOp8
 70
     1
102
RTVSPropertyOp9
 70
     1
102
RTVSPropertyOp10
 70
     1
102
RTVSPropertyOp11
 70
     1
102
RTVSPropertyOp12
 70
     1
102
RTVSPropertyOp13
 70
     1
102
RTVSPropertyOp14
 70
     1
102
RTVSPropertyOp15
 70
     1
102
RTVSPropertyOp16
 70
     1
102
RTVSPropertyOp17
 70
     1
102
RTVSPropertyOp18
 70
     1
102
RTVSPropertyOp19
 70
     1
102
RTVSPropertyOp20
 70
     1
102
RTVSPropertyOp21
 70
     1
102
RTVSPropertyOp22
 70
     1
102
RTVSPropertyOp23
 70
     1
102
RTVSPropertyOp24
 70
     1
102
RTVSPropertyOp25
 70
     1
102
RTVSPropertyOp26
 70
     1
102
RTVSPropertyOp27
 70
     1
102
RTVSPropertyOp28
 70
     1
102
RTVSPropertyOp29
 70
     1
102
RTVSPropertyOp30
 70
     1
102
RTVSPropertyOp31
 70
     1
102
RTVSPropertyOp32
 70
     1
102
RTVSPropertyOp33
 70
     1
102
RTVSPropertyOp34
 70
     1
102
RTVSPropertyOp35
 70
     1
102
RTVSPropertyOp36
 70
     1
102
RTVSPropertyOp37
 70
     1
102
RTVSPropertyOp38
 70
     1
102
RTVSPropertyOp39
 70
     1
102
RTVSPropertyOp40
 70
     1
102
RTVSPropertyOp41
 70
     1
102
RTVSPropertyOp42
 70
     1
102
RTVSPropertyOp43
 70
     1
102
RTVSPropertyOp44
 70
     1
102
RTVSPropertyOp45
 70
     1
102
RTVSPropertyOp46
 70
     1
102
RTVSPropertyOp47
 70
     1
102
RTVSPropertyOp48
 70
     1
102
RTVSPropertyOp49
 70
     1
102
RTVSPropertyOp50
 70
     1
102
RTVSPropertyOp51
 70
     0
102
RTVSPropertyOp52
 70
     0
102
RTVSPropertyOp53
 70
     1
102
RTVSPropertyOp54
 70
     1
102
RTVSPropertyOp55
 70
     1
102
RTVSPropertyOp56
 70
     1
102
RTVSPropertyOp57
 70
     1
102
RTVSPost2010Prop28
280
     0
102
RTVSPost2010PropOp28
 70
     1
102
RTVSPost2010Prop29
280
     1
102
RTVSPost2010PropOp29
 70
     1
102
RTVSPost2010Prop30
280
     1
102
RTVSPost2010PropOp30
 70
     1
102
RTVSPost2010Prop31
280
     0
102
RTVSPost2010PropOp31
 70
     1
102
RTVSPost2010Prop32
280
     0
102
RTVSPost2010PropOp32
 70
     1
102
RTVSPost2010Prop33
280
     0
102
RTVSPost2010PropOp33
 70
     1
102
RTVSPost2010Prop34
280
     0
102
RTVSPost2010PropOp34
 70
     1
102
RTVSPost2010Prop35
280
     0
102
RTVSPost2010PropOp35
 70
     1
102
RTVSPost2010Prop36
280
     0
102
RTVSPost2010PropOp36
 70
     1
102
RTVSPost2010Prop37
 90
       50
102
RTVSPost2010PropOp37
 70
     1
102
RTVSPost2010Prop38
140
0.0
102
RTVSPost2010PropOp38
 70
     1
102
RTVSPost2010Prop39
140
1.0
102
RTVSPost2010PropOp39
 70
     1
102
RTVSPost2010Prop40
 90
        0
102
RTVSPost2010PropOp40
 70
     1
102
RTVSPost2010Prop41ColorIndex
 90
       18
102
RTVSPost2010Prop41ColorRGB
 90
        0
102
RTVSPost2010PropOp41
 70
     1
102
RTVSPost2010Prop42
 90
       50
102
RTVSPost2010PropOp42
 70
     1
102
RTVSPost2010Prop43
 90
        3
102
RTVSPost2010PropOp43
 70
     1
102
RTVSPost2010Prop44ColorIndex
 90
        5
102
RTVSPost2010Prop44ColorRGB
 90
      255
102
RTVSPost2010PropOp44
 70
     1
102
RTVSPost2010Prop45
280
     0
102
RTVSPost2010PropOp45
 70
     1
102
RTVSPost2010Prop46
 90
       50
102
RTVSPost2010PropOp46
 70
     1
102
RTVSPost2010Prop47
 90
       50
102
RTVSPost2010PropOp47
 70
     1
102
RTVSPost2010Prop48
 90
       50
102
RTVSPost2010PropOp48
 70
     1
102
RTVSPost2010Prop49
280
     0
102
RTVSPost2010PropOp49
 70
     1
102
RTVSPost2010Prop50
 90
       50
102
RTVSPost2010PropOp50
 70
     1
102
RTVSPost2010Prop51ColorIndex
 90
      256
102
RTVSPost2010Prop51ColorRGB
 90
-16777216
102
RTVSPost2010PropOp51
 70
     0
102
RTVSPost2010Prop52
140
1.0
102
RTVSPost2010PropOp52
 70
     0
102
RTVSPost2010Prop53
 90
        2
102
RTVSPost2010PropOp53
 70
     1
102
RTVSPost2010Prop54
  1
strokes_ogs.tif
102
RTVSPost2010PropOp54
 70
     1
102
RTVSPost2010Prop55
280
     0
102
RTVSPost2010PropOp55
 70
     1
102
RTVSPost2010Prop56
140
1.0
102
RTVSPost2010PropOp56
 70
     1
102
RTVSPost2010Prop57
140
1.0
102
RTVSPost2010PropOp57
 70
     1
  0
XRECORD
  5
C9
102
{ACAD_REACTORS
330
C8
102
}
330
C8
100
AcDbXrecord
280
     1
102
RTVSPropertyOp0
 70
     1
102
RTVSPropertyOp1
 70
     1
102
RTVSPropertyOp2
 70
     1
102
RTVSPropertyOp3
 70
     1
102
RTVSPropertyOp4
 70
     1
102
RTVSPropertyOp5
 70
     1
102
RTVSPropertyOp6
 70
     1
102
RTVSPropertyOp7
 70
     1
102
RTVSPropertyOp8
 70
     1
102
RTVSPropertyOp9
 70
     1
102
RTVSPropertyOp10
 70
     1
102
RTVSPropertyOp11
 70
     1
102
RTVSPropertyOp12
 70
     1
102
RTVSPropertyOp13
 70
     1
102
RTVSPropertyOp14
 70
     1
102
RTVSPropertyOp15
 70
     1
102
RTVSPropertyOp16
 70
     1
102
RTVSPropertyOp17
 70
     1
102
RTVSPropertyOp18
 70
     1
102
RTVSPropertyOp19
 70
     1
102
RTVSPropertyOp20
 70
     1
102
RTVSPropertyOp21
 70
     1
102
RTVSPropertyOp22
 70
     1
102
RTVSPropertyOp23
 70
     1
102
RTVSPropertyOp24
 70
     1
102
RTVSPropertyOp25
 70
     1
102
RTVSPropertyOp26
 70
     1
102
RTVSPropertyOp27
 70
     1
102
RTVSPropertyOp28
 70
     1
102
RTVSPropertyOp29
 70
     1
102
RTVSPropertyOp30
 70
     1
102
RTVSPropertyOp31
 70
     1
102
RTVSPropertyOp32
 70
     1
102
RTVSPropertyOp33
 70
     1
102
RTVSPropertyOp34
 70
     1
102
RTVSPropertyOp35
 70
     1
102
RTVSPropertyOp36
 70
     1
102
RTVSPropertyOp37
 70
     1
102
RTVSPropertyOp38
 70
     1
102
RTVSPropertyOp39
 70
     1
102
RTVSPropertyOp40
 70
     1
102
RTVSPropertyOp41
 70
     1
102
RTVSPropertyOp42
 70
     1
102
RTVSPropertyOp43
 70
     1
102
RTVSPropertyOp44
 70
     1
102
RTVSPropertyOp45
 70
     1
102
RTVSPropertyOp46
 70
     1
102
RTVSPropertyOp47
 70
     1
102
RTVSPropertyOp48
 70
     1
102
RTVSPropertyOp49
 70
     1
102
RTVSPropertyOp50
 70
     1
102
RTVSPropertyOp51
 70
     0
102
RTVSPropertyOp52
 70
     0
102
RTVSPropertyOp53
 70
     1
102
RTVSPropertyOp54
 70
     1
102
RTVSPropertyOp55
 70
     1
102
RTVSPropertyOp56
 70
     1
102
RTVSPropertyOp57
 70
     1
102
RTVSPost2010Prop28
280
     0
102
RTVSPost2010PropOp28
 70
     1
102
RTVSPost2010Prop29
280
     1
102
RTVSPost2010PropOp29
 70
     1
102
RTVSPost2010Prop30
280
     1
102
RTVSPost2010PropOp30
 70
     1
102
RTVSPost2010Prop31
280
     0
102
RTVSPost2010PropOp31
 70
     1
102
RTVSPost2010Prop32
280
     0
102
RTVSPost2010PropOp32
 70
     1
102
RTVSPost2010Prop33
280
     0
102
RTVSPost2010PropOp33
 70
     1
102
RTVSPost2010Prop34
280
     0
102
RTVSPost2010PropOp34
 70
     1
102
RTVSPost2010Prop35
280
     0
102
RTVSPost2010PropOp35
 70
     1
102
RTVSPost2010Prop36
280
     0
102
RTVSPost2010PropOp36
 70
     1
102
RTVSPost2010Prop37
 90
       50
102
RTVSPost2010PropOp37
 70
     1
102
RTVSPost2010Prop38
140
0.0
102
RTVSPost2010PropOp38
 70
     1
102
RTVSPost2010Prop39
140
1.0
102
RTVSPost2010PropOp39
 70
     1
102
RTVSPost2010Prop40
 90
        0
102
RTVSPost2010PropOp40
 70
     1
102
RTVSPost2010Prop41ColorIndex
 90
       18
102
RTVSPost2010Prop41ColorRGB
 90
        0
102
RTVSPost2010PropOp41
 70
     1
102
RTVSPost2010Prop42
 90
       50
102
RTVSPost2010PropOp42
 70
     1
102
RTVSPost2010Prop43
 90
        3
102
RTVSPost2010PropOp43
 70
     1
102
RTVSPost2010Prop44ColorIndex
 90
        5
102
RTVSPost2010Prop44ColorRGB
 90
      255
102
RTVSPost2010PropOp44
 70
     1
102
RTVSPost2010Prop45
280
     0
102
RTVSPost2010PropOp45
 70
     1
102
RTVSPost2010Prop46
 90
       50
102
RTVSPost2010PropOp46
 70
     1
102
RTVSPost2010Prop47
 90
       50
102
RTVSPost2010PropOp47
 70
     1
102
RTVSPost2010Prop48
 90
       50
102
RTVSPost2010PropOp48
 70
     1
102
RTVSPost2010Prop49
280
     0
102
RTVSPost2010PropOp49
 70
     1
102
RTVSPost2010Prop50
 90
       50
102
RTVSPost2010PropOp50
 70
     1
102
RTVSPost2010Prop51ColorIndex
 90
      256
102
RTVSPost2010Prop51ColorRGB
 90
-16777216
102
RTVSPost2010PropOp51
 70
     0
102
RTVSPost2010Prop52
140
1.0
102
RTVSPost2010PropOp52
 70
     0
102
RTVSPost2010Prop53
 90
        2
102
RTVSPost2010PropOp53
 70
     1
102
RTVSPost2010Prop54
  1
strokes_ogs.tif
102
RTVSPost2010PropOp54
 70
     1
102
RTVSPost2010Prop55
280
     0
102
RTVSPost2010PropOp55
 70
     1
102
RTVSPost2010Prop56
140
1.0
102
RTVSPost2010PropOp56
 70
     1
102
RTVSPost2010Prop57
140
1.0
102
RTVSPost2010PropOp57
 70
     1
  0
XRECORD
  5
B9
102
{ACAD_REACTORS
330
B8
102
}
330
B8
100
AcDbXrecord
280
     1
102
RTVSPropertyOp0
 70
     1
102
RTVSPropertyOp1
 70
     1
102
RTVSPropertyOp2
 70
     1
102
RTVSPropertyOp3
 70
     1
102
RTVSPropertyOp4
 70
     1
102
RTVSPropertyOp5
 70
     1
102
RTVSPropertyOp6
 70
     1
102
RTVSPropertyOp7
 70
     1
102
RTVSPropertyOp8
 70
     1
102
RTVSPropertyOp9
 70
     1
102
RTVSPropertyOp10
 70
     1
102
RTVSPropertyOp11
 70
     1
102
RTVSPropertyOp12
 70
     1
102
RTVSPropertyOp13
 70
     1
102
RTVSPropertyOp14
 70
     1
102
RTVSPropertyOp15
 70
     1
102
RTVSPropertyOp16
 70
     1
102
RTVSPropertyOp17
 70
     1
102
RTVSPropertyOp18
 70
     1
102
RTVSPropertyOp19
 70
     1
102
RTVSPropertyOp20
 70
     1
102
RTVSPropertyOp21
 70
     1
102
RTVSPropertyOp22
 70
     1
102
RTVSPropertyOp23
 70
     1
102
RTVSPropertyOp24
 70
     1
102
RTVSPropertyOp25
 70
     1
102
RTVSPropertyOp26
 70
     1
102
RTVSPropertyOp27
 70
     1
102
RTVSPropertyOp28
 70
     1
102
RTVSPropertyOp29
 70
     1
102
RTVSPropertyOp30
 70
     1
102
RTVSPropertyOp31
 70
     1
102
RTVSPropertyOp32
 70
     1
102
RTVSPropertyOp33
 70
     1
102
RTVSPropertyOp34
 70
     1
102
RTVSPropertyOp35
 70
     1
102
RTVSPropertyOp36
 70
     1
102
RTVSPropertyOp37
 70
     1
102
RTVSPropertyOp38
 70
     1
102
RTVSPropertyOp39
 70
     1
102
RTVSPropertyOp40
 70
     1
102
RTVSPropertyOp41
 70
     1
102
RTVSPropertyOp42
 70
     1
102
RTVSPropertyOp43
 70
     1
102
RTVSPropertyOp44
 70
     1
102
RTVSPropertyOp45
 70
     1
102
RTVSPropertyOp46
 70
     1
102
RTVSPropertyOp47
 70
     1
102
RTVSPropertyOp48
 70
     1
102
RTVSPropertyOp49
 70
     1
102
RTVSPropertyOp50
 70
     1
102
RTVSPropertyOp51
 70
     0
102
RTVSPropertyOp52
 70
     0
102
RTVSPropertyOp53
 70
     1
102
RTVSPropertyOp54
 70
     1
102
RTVSPropertyOp55
 70
     1
102
RTVSPropertyOp56
 70
     1
102
RTVSPropertyOp57
 70
     1
102
RTVSPost2010Prop28
280
     0
102
RTVSPost2010PropOp28
 70
     1
102
RTVSPost2010Prop29
280
     1
102
RTVSPost2010PropOp29
 70
     1
102
RTVSPost2010Prop30
280
     1
102
RTVSPost2010PropOp30
 70
     1
102
RTVSPost2010Prop31
280
     0
102
RTVSPost2010PropOp31
 70
     1
102
RTVSPost2010Prop32
280
     0
102
RTVSPost2010PropOp32
 70
     1
102
RTVSPost2010Prop33
280
     0
102
RTVSPost2010PropOp33
 70
     1
102
RTVSPost2010Prop34
280
     0
102
RTVSPost2010PropOp34
 70
     1
102
RTVSPost2010Prop35
280
     0
102
RTVSPost2010PropOp35
 70
     1
102
RTVSPost2010Prop36
280
     0
102
RTVSPost2010PropOp36
 70
     1
102
RTVSPost2010Prop37
 90
       50
102
RTVSPost2010PropOp37
 70
     1
102
RTVSPost2010Prop38
140
0.0
102
RTVSPost2010PropOp38
 70
     1
102
RTVSPost2010Prop39
140
1.0
102
RTVSPost2010PropOp39
 70
     1
102
RTVSPost2010Prop40
 90
        0
102
RTVSPost2010PropOp40
 70
     1
102
RTVSPost2010Prop41ColorIndex
 90
       18
102
RTVSPost2010Prop41ColorRGB
 90
        0
102
RTVSPost2010PropOp41
 70
     1
102
RTVSPost2010Prop42
 90
       50
102
RTVSPost2010PropOp42
 70
     1
102
RTVSPost2010Prop43
 90
        3
102
RTVSPost2010PropOp43
 70
     1
102
RTVSPost2010Prop44ColorIndex
 90
        5
102
RTVSPost2010Prop44ColorRGB
 90
      255
102
RTVSPost2010PropOp44
 70
     1
102
RTVSPost2010Prop45
280
     0
102
RTVSPost2010PropOp45
 70
     1
102
RTVSPost2010Prop46
 90
       50
102
RTVSPost2010PropOp46
 70
     1
102
RTVSPost2010Prop47
 90
       50
102
RTVSPost2010PropOp47
 70
     1
102
RTVSPost2010Prop48
 90
       50
102
RTVSPost2010PropOp48
 70
     1
102
RTVSPost2010Prop49
280
     0
102
RTVSPost2010PropOp49
 70
     1
102
RTVSPost2010Prop50
 90
       50
102
RTVSPost2010PropOp50
 70
     1
102
RTVSPost2010Prop51ColorIndex
 90
      256
102
RTVSPost2010Prop51ColorRGB
 90
-16777216
102
RTVSPost2010PropOp51
 70
     0
102
RTVSPost2010Prop52
140
1.0
102
RTVSPost2010PropOp52
 70
     0
102
RTVSPost2010Prop53
 90
        2
102
RTVSPost2010PropOp53
 70
     1
102
RTVSPost2010Prop54
  1
strokes_ogs.tif
102
RTVSPost2010PropOp54
 70
     1
102
RTVSPost2010Prop55
280
     0
102
RTVSPost2010PropOp55
 70
     1
102
RTVSPost2010Prop56
140
1.0
102
RTVSPost2010PropOp56
 70
     1
102
RTVSPost2010Prop57
140
1.0
102
RTVSPost2010PropOp57
 70
     1
  0
XRECORD
  5
AB
102
{ACAD_REACTORS
330
AA
102
}
330
AA
100
AcDbXrecord
280
     1
102
RTVSPropertyOp0
 70
     1
102
RTVSPropertyOp1
 70
     1
102
RTVSPropertyOp2
 70
     1
102
RTVSPropertyOp3
 70
     1
102
RTVSPropertyOp4
 70
     1
102
RTVSPropertyOp5
 70
     1
102
RTVSPropertyOp6
 70
     1
102
RTVSPropertyOp7
 70
     1
102
RTVSPropertyOp8
 70
     1
102
RTVSPropertyOp9
 70
     1
102
RTVSPropertyOp10
 70
     1
102
RTVSPropertyOp11
 70
     1
102
RTVSPropertyOp12
 70
     1
102
RTVSPropertyOp13
 70
     1
102
RTVSPropertyOp14
 70
     1
102
RTVSPropertyOp15
 70
     1
102
RTVSPropertyOp16
 70
     1
102
RTVSPropertyOp17
 70
     1
102
RTVSPropertyOp18
 70
     1
102
RTVSPropertyOp19
 70
     1
102
RTVSPropertyOp20
 70
     1
102
RTVSPropertyOp21
 70
     1
102
RTVSPropertyOp22
 70
     1
102
RTVSPropertyOp23
 70
     1
102
RTVSPropertyOp24
 70
     1
102
RTVSPropertyOp25
 70
     1
102
RTVSPropertyOp26
 70
     1
102
RTVSPropertyOp27
 70
     1
102
RTVSPropertyOp28
 70
     1
102
RTVSPropertyOp29
 70
     1
102
RTVSPropertyOp30
 70
     1
102
RTVSPropertyOp31
 70
     1
102
RTVSPropertyOp32
 70
     1
102
RTVSPropertyOp33
 70
     1
102
RTVSPropertyOp34
 70
     1
102
RTVSPropertyOp35
 70
     1
102
RTVSPropertyOp36
 70
     1
102
RTVSPropertyOp37
 70
     1
102
RTVSPropertyOp38
 70
     1
102
RTVSPropertyOp39
 70
     1
102
RTVSPropertyOp40
 70
     1
102
RTVSPropertyOp41
 70
     1
102
RTVSPropertyOp42
 70
     1
102
RTVSPropertyOp43
 70
     1
102
RTVSPropertyOp44
 70
     1
102
RTVSPropertyOp45
 70
     1
102
RTVSPropertyOp46
 70
     1
102
RTVSPropertyOp47
 70
     1
102
RTVSPropertyOp48
 70
     1
102
RTVSPropertyOp49
 70
     1
102
RTVSPropertyOp50
 70
     1
102
RTVSPropertyOp51
 70
     0
102
RTVSPropertyOp52
 70
     0
102
RTVSPropertyOp53
 70
     1
102
RTVSPropertyOp54
 70
     1
102
RTVSPropertyOp55
 70
     1
102
RTVSPropertyOp56
 70
     1
102
RTVSPropertyOp57
 70
     1
102
RTVSPost2010Prop28
280
     0
102
RTVSPost2010PropOp28
 70
     1
102
RTVSPost2010Prop29
280
     1
102
RTVSPost2010PropOp29
 70
     1
102
RTVSPost2010Prop30
280
     1
102
RTVSPost2010PropOp30
 70
     1
102
RTVSPost2010Prop31
280
     0
102
RTVSPost2010PropOp31
 70
     1
102
RTVSPost2010Prop32
280
     0
102
RTVSPost2010PropOp32
 70
     1
102
RTVSPost2010Prop33
280
     0
102
RTVSPost2010PropOp33
 70
     1
102
RTVSPost2010Prop34
280
     0
102
RTVSPost2010PropOp34
 70
     1
102
RTVSPost2010Prop35
280
     0
102
RTVSPost2010PropOp35
 70
     1
102
RTVSPost2010Prop36
280
     0
102
RTVSPost2010PropOp36
 70
     1
102
RTVSPost2010Prop37
 90
       50
102
RTVSPost2010PropOp37
 70
     1
102
RTVSPost2010Prop38
140
0.0
102
RTVSPost2010PropOp38
 70
     1
102
RTVSPost2010Prop39
140
1.0
102
RTVSPost2010PropOp39
 70
     1
102
RTVSPost2010Prop40
 90
        0
102
RTVSPost2010PropOp40
 70
     1
102
RTVSPost2010Prop41ColorIndex
 90
       18
102
RTVSPost2010Prop41ColorRGB
 90
        0
102
RTVSPost2010PropOp41
 70
     1
102
RTVSPost2010Prop42
 90
       50
102
RTVSPost2010PropOp42
 70
     1
102
RTVSPost2010Prop43
 90
        3
102
RTVSPost2010PropOp43
 70
     1
102
RTVSPost2010Prop44ColorIndex
 90
        5
102
RTVSPost2010Prop44ColorRGB
 90
      255
102
RTVSPost2010PropOp44
 70
     1
102
RTVSPost2010Prop45
280
     0
102
RTVSPost2010PropOp45
 70
     1
102
RTVSPost2010Prop46
 90
       50
102
RTVSPost2010PropOp46
 70
     1
102
RTVSPost2010Prop47
 90
       50
102
RTVSPost2010PropOp47
 70
     1
102
RTVSPost2010Prop48
 90
       50
102
RTVSPost2010PropOp48
 70
     1
102
RTVSPost2010Prop49
280
     0
102
RTVSPost2010PropOp49
 70
     1
102
RTVSPost2010Prop50
 90
       50
102
RTVSPost2010PropOp50
 70
     1
102
RTVSPost2010Prop51ColorIndex
 90
      256
102
RTVSPost2010Prop51ColorRGB
 90
-16777216
102
RTVSPost2010PropOp51
 70
     0
102
RTVSPost2010Prop52
140
1.0
102
RTVSPost2010PropOp52
 70
     0
102
RTVSPost2010Prop53
 90
        2
102
RTVSPost2010PropOp53
 70
     1
102
RTVSPost2010Prop54
  1
strokes_ogs.tif
102
RTVSPost2010PropOp54
 70
     1
102
RTVSPost2010Prop55
280
     0
102
RTVSPost2010PropOp55
 70
     1
102
RTVSPost2010Prop56
140
1.0
102
RTVSPost2010PropOp56
 70
     1
102
RTVSPost2010Prop57
140
1.0
102
RTVSPost2010PropOp57
 70
     1
  0
XRECORD
  5
CB
102
{ACAD_REACTORS
330
CA
102
}
330
CA
100
AcDbXrecord
280
     1
102
RTVSPropertyOp0
 70
     1
102
RTVSPropertyOp1
 70
     1
102
RTVSPropertyOp2
 70
     1
102
RTVSPropertyOp3
 70
     1
102
RTVSPropertyOp4
 70
     1
102
RTVSPropertyOp5
 70
     1
102
RTVSPropertyOp6
 70
     1
102
RTVSPropertyOp7
 70
     1
102
RTVSPropertyOp8
 70
     1
102
RTVSPropertyOp9
 70
     1
102
RTVSPropertyOp10
 70
     1
102
RTVSPropertyOp11
 70
     1
102
RTVSPropertyOp12
 70
     1
102
RTVSPropertyOp13
 70
     1
102
RTVSPropertyOp14
 70
     1
102
RTVSPropertyOp15
 70
     1
102
RTVSPropertyOp16
 70
     1
102
RTVSPropertyOp17
 70
     1
102
RTVSPropertyOp18
 70
     1
102
RTVSPropertyOp19
 70
     1
102
RTVSPropertyOp20
 70
     1
102
RTVSPropertyOp21
 70
     1
102
RTVSPropertyOp22
 70
     1
102
RTVSPropertyOp23
 70
     1
102
RTVSPropertyOp24
 70
     1
102
RTVSPropertyOp25
 70
     1
102
RTVSPropertyOp26
 70
     1
102
RTVSPropertyOp27
 70
     1
102
RTVSPropertyOp28
 70
     1
102
RTVSPropertyOp29
 70
     1
102
RTVSPropertyOp30
 70
     1
102
RTVSPropertyOp31
 70
     1
102
RTVSPropertyOp32
 70
     1
102
RTVSPropertyOp33
 70
     1
102
RTVSPropertyOp34
 70
     1
102
RTVSPropertyOp35
 70
     1
102
RTVSPropertyOp36
 70
     1
102
RTVSPropertyOp37
 70
     1
102
RTVSPropertyOp38
 70
     1
102
RTVSPropertyOp39
 70
     1
102
RTVSPropertyOp40
 70
     1
102
RTVSPropertyOp41
 70
     1
102
RTVSPropertyOp42
 70
     1
102
RTVSPropertyOp43
 70
     1
102
RTVSPropertyOp44
 70
     1
102
RTVSPropertyOp45
 70
     1
102
RTVSPropertyOp46
 70
     1
102
RTVSPropertyOp47
 70
     1
102
RTVSPropertyOp48
 70
     1
102
RTVSPropertyOp49
 70
     1
102
RTVSPropertyOp50
 70
     1
102
RTVSPropertyOp51
 70
     0
102
RTVSPropertyOp52
 70
     0
102
RTVSPropertyOp53
 70
     1
102
RTVSPropertyOp54
 70
     1
102
RTVSPropertyOp55
 70
     1
102
RTVSPropertyOp56
 70
     1
102
RTVSPropertyOp57
 70
     1
102
RTVSPost2010Prop28
280
     0
102
RTVSPost2010PropOp28
 70
     1
102
RTVSPost2010Prop29
280
     1
102
RTVSPost2010PropOp29
 70
     1
102
RTVSPost2010Prop30
280
     1
102
RTVSPost2010PropOp30
 70
     1
102
RTVSPost2010Prop31
280
     0
102
RTVSPost2010PropOp31
 70
     1
102
RTVSPost2010Prop32
280
     0
102
RTVSPost2010PropOp32
 70
     1
102
RTVSPost2010Prop33
280
     0
102
RTVSPost2010PropOp33
 70
     1
102
RTVSPost2010Prop34
280
     0
102
RTVSPost2010PropOp34
 70
     1
102
RTVSPost2010Prop35
280
     0
102
RTVSPost2010PropOp35
 70
     1
102
RTVSPost2010Prop36
280
     0
102
RTVSPost2010PropOp36
 70
     1
102
RTVSPost2010Prop37
 90
       50
102
RTVSPost2010PropOp37
 70
     1
102
RTVSPost2010Prop38
140
0.0
102
RTVSPost2010PropOp38
 70
     1
102
RTVSPost2010Prop39
140
1.0
102
RTVSPost2010PropOp39
 70
     1
102
RTVSPost2010Prop40
 90
        0
102
RTVSPost2010PropOp40
 70
     1
102
RTVSPost2010Prop41ColorIndex
 90
       18
102
RTVSPost2010Prop41ColorRGB
 90
        0
102
RTVSPost2010PropOp41
 70
     1
102
RTVSPost2010Prop42
 90
       50
102
RTVSPost2010PropOp42
 70
     1
102
RTVSPost2010Prop43
 90
        3
102
RTVSPost2010PropOp43
 70
     1
102
RTVSPost2010Prop44ColorIndex
 90
        5
102
RTVSPost2010Prop44ColorRGB
 90
      255
102
RTVSPost2010PropOp44
 70
     1
102
RTVSPost2010Prop45
280
     0
102
RTVSPost2010PropOp45
 70
     1
102
RTVSPost2010Prop46
 90
       50
102
RTVSPost2010PropOp46
 70
     1
102
RTVSPost2010Prop47
 90
       50
102
RTVSPost2010PropOp47
 70
     1
102
RTVSPost2010Prop48
 90
       50
102
RTVSPost2010PropOp48
 70
     1
102
RTVSPost2010Prop49
280
     0
102
RTVSPost2010PropOp49
 70
     1
102
RTVSPost2010Prop50
 90
       50
102
RTVSPost2010PropOp50
 70
     1
102
RTVSPost2010Prop51ColorIndex
 90
      256
102
RTVSPost2010Prop51ColorRGB
 90
-16777216
102
RTVSPost2010PropOp51
 70
     0
102
RTVSPost2010Prop52
140
1.0
102
RTVSPost2010PropOp52
 70
     0
102
RTVSPost2010Prop53
 90
        2
102
RTVSPost2010PropOp53
 70
     1
102
RTVSPost2010Prop54
  1
strokes_ogs.tif
102
RTVSPost2010PropOp54
 70
     1
102
RTVSPost2010Prop55
280
     0
102
RTVSPost2010PropOp55
 70
     1
102
RTVSPost2010Prop56
140
1.0
102
RTVSPost2010PropOp56
 70
     1
102
RTVSPost2010Prop57
140
1.0
102
RTVSPost2010PropOp57
 70
     1
  0
ENDSEC
  0
EOF
